Oops, an error
Loading. Please wait.

This I Swear bass

by Rufio
300 views 1 this week
no commentswrite comment
1 2 3 4 5
3 more votes to show rating
add to favorites
×
Save as Personal and add changes to this tab that will be seen only by you. Learn more ›
×
You can save this tab as Personal to edit and correct it or add notes. All changes will be seen only by you. Learn more »
launch autoscroll
font size
0
reset
guitar tuner
edit
Autoscroll
slow
fast
+/-
esc
set tempo
stop
+++++++++++++++++++++++
| Rufio- This I Swear |
+++++++++++++++++++++++



"Bring all those years back..."


Tuning: Half-Step Down (EbADG)



Intro
1.
G||------------------------------------------------------------|
D||------------------------------------------------------------|
A||-----------------------------44x------------------4~--------|
Eb|--------22x----00x----55x-----------22x----00x--------------|

Verse
"Bring all those years back..."
2.
G||---------------------------------------------------------------------------------|
D||---------------------------------------------------------------------------------|
A||---------------------------------------------------------------------------------|
Eb|-55-5--5-5-55-5--0-0-22-2--2-2-22-2--0-0-55-5--5-5-55-5--0-0-22-2--2-2-22-2--0-0-|

Pre-Chorus
"And I know that the world eyes..."
3.
G||-----------------------------------------|
D||--------------3-5653---------------------|
A||-4444----------------4444----------------|
Eb|------5555-000------------5555-0000-0000-|

Chorus
"This I swear my honesty's holding me back..."
4.
G||---------------------------------------------------------|
D||---------------------------------------------------------|
A||--------44x-------------------------44x-----------66x----|
Eb|-22x-----------55x----00x----22x-----------55x-----------|

"Take advantage of myself..."
5.
G||-----------------------------------------------|
D||-----------------------------------------------|
A||--------44x------------------44444444-66666666-|
Eb|-22x-----------55x----00x----------------------|

Outro
6.
G||----------------------------------------|
D||----------------------------------------|
A||--------------3-4443----------4~--------|
Eb|-2222-0000-555-------2222-000-----------|

Verse
"All people are free falling..."
7.
G||---------------------------------------------------------------------------------|
D||---------------------------------------------------------------------------------|
A||---------------------------------------------------------------------------------|
Eb|-55-5--5-5-55-5--0-0-22-2--2-2-22-2--0-0-55-5--5-5-55-5--0-0-22-2--2-2-22-2--0-0-|

Pre-Chorus
"And I know that the world eyes..."
8.
G||-----------------------------------------|
D||--------------3-5653---------------------|
A||-4444----------------4444----------------|
Eb|------5555-000------------5555-0000-0000-|

Chorus
"This I swear my honesty's holding me back..."
9.
G||---------------------------------------------------------|
D||---------------------------------------------------------|
A||--------44x-------------------------44x-----------66x----|
Eb|-22x-----------55x----00x----22x-----------55x-----------|

"Take advantage of myself..."
10.
G||-----------------------------------------------|
D||-----------------------------------------------|
A||--------44x------------------44444444-66666666-|
Eb|-22x-----------55x----00x----------------------|

Outro
11.
G||------------------------------|
D||------------------------------|
A||--------------3-4443----------|
Eb|-2222-0000-555-------2222-000-|

Bridge
"Its just a part of my imagination..."
12.
G||-----------------------------------------------------------------------------|
D||-------------------33333333-55555555-------------------33333333--------------|
A||-44444444-66666666-------------------44444444-66666666----------66x--66x--6\-|
Eb|-----------------------------------------------------------------------------|

Chorus
"This I swear my honesty's holding me back..."
13.
G||---------------------------------------------------------|
D||---------------------------------------------------------|
A||--------44x-------------------------44x-----------66x----|
Eb|-22x-----------55x----00x----22x-----------55x-----------|

"Take advantage of myself..."
14.
G||-----------------------------------------------|
D||-----------------------------------------------|
A||--------44x------------------44444444-66666666-|
Eb|-22x-----------55x----00x----------------------|

Outro
15.
G||----------------------------------------|
D||----------------------------------------|
A||--------------3-4443----------4~--------|
Eb|-2222-0000-555-------2222-000-----------|


Please rate thanks!


Lyrics:

Bring all those years back
Oh, what a change
With the mind of a child learning
Not one disgrace

And I know that the world eyes 
Would leave it alone
And I want it to be so different

This I swear 
My honesty's holding me back
I can be the one 
That I've been running from
Take advantage of myself up so I can
I can be the that I've been running from

All people are free falling 
And some hit the floor
some re-defy gravity but 
they're still wanting more

It's just a part of my imagination
The only damage I can depend on
Want it to be heard all across the nation
Believe in me 
No, I can, I can't



+++++++++++++++++++++++++++++++++
| Raileff                       |
| Underground__Dora@Hotmail.Com |
+++++++++++++++++++++++++++++++++

            
            
Suggest correction
Creating personal tab
Creating personal tab
You can edit any tab online and save it as your Personal.

You can edit, replace or remove any tab part or add personal notes – all changes will be seen only by you.

Personal tabs can be accessed anytime from any device, even offline.
Learn more »
Give kudos to tab author, rate the tab!
1 2 3 4 5
comments
print report bad tab
guest
You may want to rate the tab now too:
select rating
Wanna post a correction for this tab? Suggest correction