Oops, an error
Loading. Please wait.

We Exist bass

version 1
version 1

Whole song

Interactive

by Rufio
209 views 1 this week
1 commentread comment
1 2 3 4 5
2 more votes to show rating
add to favorites
×
Save as Personal and add changes to this tab that will be seen only by you. Learn more ›
×
You can save this tab as Personal to edit and correct it or add notes. All changes will be seen only by you. Learn more »
launch autoscroll
font size
0
reset
guitar tuner
edit
Autoscroll
slow
fast
+/-
esc
set tempo
stop
Author
+++++++++++++++++++
| Rufio- We Exist |
+++++++++++++++++++

Tuning: EADG

Intro
1.
G|-2-0-2-4-5-4-2-0--|
D|------------------|
A|------------------|
E|------------------|

Verse
"Cannot fight this feeling..."
2.
G|-------------------------------------|
D|-------------------------------------|
A|-------------------33333333----------|--x3
E|-11111111-11111111----------33333333-|

"Say its right.." 
3.
G|-------------------------------|
D|-------------------------------|
A|-------------------33333333----|
E|-11111111-11111111----------3x-|

Chorus
"So it seems I pray..."
4.
G|-------------------------------------------------------------------------|
D|-------------------------------------------------------33333333-532------|
A|-00000000-00000000-33333333-33333333-55555555-55555555-------------532---|
E|----------------------------------------------------------------------53-|

5.
G|-------------------------------------------------------------------------|
D|-------------------------------------------------------33333333-55555555-|
A|-00000000-00000000-33333333-33333333-55555555-55555555-------------------|
E|-------------------------------------------------------------------------|

Outro
6.
G|-2-0-2-4-5-4-2-0-------9-0-7-0-5-0---2-0-2-4-5-4-2-0------5~----7~-|
D|-------------------3-3---------------------------------33----55----|
A|-------------------------------------------------------------------|--x2
E|-------------------------------------------------------------------|

Verse
"Broken wings and burden..."
7.
G|-------------------------------------|
D|-------------------------------------|
A|-------------------33333333----------|--x3
E|-11111111-11111111----------33333333-|

"Sadness is what your feeling..."
8.
G|-------------------------------|
D|-------------------------------|
A|-------------------33333333----|
E|-11111111-11111111----------3x-|

Chorus
"So it seems I pray..."
9.
G|-------------------------------------------------------------------------|
D|-------------------------------------------------------33333333-532------|
A|-00000000-00000000-33333333-33333333-55555555-55555555-------------532---|
E|----------------------------------------------------------------------53-|

10.
G|-------------------------------------------------------------------------|
D|-------------------------------------------------------33333333-55555555-|
A|-00000000-00000000-33333333-33333333-55555555-55555555-------------------|
E|-------------------------------------------------------------------------|

Bridge
11.
G|-------------------------------------|
D|-------------------------------------|
A|-000------000------000------000------|
E|----1x-------1x-------1x-------1x----|

12.
G|-5-4-0-2-------------|
D|---------------------|
A|-------------333-----|--x4
E|---------111-----333-|

Chorus
"So it seems I pray..."
13.
G|-------------------------------------------------------------------------|
D|-------------------------------------------------------33333333-532------|
A|-00000000-00000000-33333333-33333333-55555555-55555555-------------532---|
E|----------------------------------------------------------------------53-|

14.
G|-------------------------------------------------------------------------|
D|-------------------------------------------------------33333333-55555555-|
A|-00000000-00000000-33333333-33333333-55555555-55555555-------------------|
E|-------------------------------------------------------------------------|

Outro
15.
G|-5-4-0-2-------------|
D|---------------------|
A|-------------333-----|--x2
E|---------111-----333-|

16.
G|-5-4-0-2x--|
D|-----------|
A|-----------|
E|-----------|

Lyrics:

Cannot fight this feeling
That's all you want is to break me
Fighting in my wonder
That when I try to find out
It seems just all on the inside
We fall and come back to where we say it's right.
It's the feeling
And believe

So it seems I pray
Only when I'm down
Feeling wrong inside
I can't deny the fact that I'm so
Torn up in my mind
Knowing we exist
From something so unknown
Trying hard to live
I can't live on my own

Broken wings and burden
I'm still to far to see your
Living undercover
And all for what to save your own life
Seems as though on the inside
We fall and come back to where we
Sadness is what your feeling
And believe

+++++++++++++++++++++++++++++++++
| RaiLeff                       |
| Underground__Dora@Hotmail.Com |
+++++++++++++++++++++++++++++++++

            
            
Suggest correction
Creating personal tab
Creating personal tab
You can edit any tab online and save it as your Personal.

You can edit, replace or remove any tab part or add personal notes – all changes will be seen only by you.

Personal tabs can be accessed anytime from any device, even offline.
Learn more »
Give kudos to tab author, rate the tab!
1 2 3 4 5
comments
print report bad tab
1 comment total.
0 reply
rufiopunkrock 596 May 02, 2007 03:47 PM

hey men what's up with this tab?
This tab is so so bad
The chorus is wrong because in the first play in the final have a scale with the guitar, and you don't put
the post-chorus is so bad, because the notes in this strings doesn't is correct
the bridge is so much differente have a other notes in E and A
Try to correct this tab
I rate 3
Good luck

guest
You may want to rate the tab now too:
select rating
Wanna post a correction for this tab? Suggest correction