Oops, an error
Loading. Please wait.

White Lights bass

version 2
version 2

Whole song

Interactive

by Rufio
456 views 1 this week
no commentswrite comment
1 2 3 4 5
2 more votes to show rating
add to favorites
×
Save as Personal and add changes to this tab that will be seen only by you. Learn more ›
×
You can save this tab as Personal to edit and correct it or add notes. All changes will be seen only by you. Learn more »
launch autoscroll
font size
0
reset
guitar tuner
edit
Autoscroll
slow
fast
+/-
esc
set tempo
stop
Difficulty
intermediate
“White lights”
RUFIO

Tabbed by	:ebo(suburb88@hotmail.com)
This is my favourite song of their album,I often play it with my friends..
INTRO
G------------|
D------------|
A------------|
E--222-------|

G-------------------------------------------|
D-------------------------------------------|
A-------------------------------------------|
E--44--00---222--44--00--2222---------------|

VERSE (2X)”honestly………”
G----------------------------------------------|
D----------------------------------------------|
A-----2---2-----2---2--222-222-----------------|
E--44--44---00--00-------------222-------------|

PRE-CHORUS 1”be honest…………….”let string echoing
G---------------------------------------------------|
D---------------------------------------------------|
A---------------------------------------------------|
E---000-0--2222-000—222#----2222222-----------------|

CHORUS  “time is wasted…..”
G---------------------------------------------------------------------------|
D-----4------------------------4---------------------4----------------------|
A---2----------------2-22---2---------------------2--------------2-22-------|
E--4----0-00--2-22-------4----0-00--2-00-00-4--0-00--2-22------444-22-0-00--|
REPEAT INTRO

2(nd)VERSE “so this is………”
G--------------------------------------------------|
D--------------------------------------------------|
A-----------------------2-2-222--------------------|
E--4-4-444--0-0-000----------2-2-222---------------|

PRE-CHORUS “be honest….”
G-----------------------------------------------|
D-----------------------------------------------|
A--777777-99999---------------------------------|
E--------------------10/000-2222222-------------|
CHORUS

BRIDGE “in existence……”(repeat this part slowly)
G----------15h16p15---------------------|
D---------------------------------------|
A---------------------------------------|
E---------------------------------------|

2(nd)bridge continued…loud(I love this part)
G------------------------------------------------------------------------------|
D------------------------------------------------------------------------------|
A------------------------------------------------------------------------------|
E-----0---67-0-777--0-777-764244444--67-0-777-0-777-764244444-67--000000-2222--|
CHORUS
CHORUS VERSE 2 (they made different sound in this part)
G-------------------------------------------|
D-------------------------------------------|
A------\777-----2222------\77---------------|
E--444------222-------444-----2--00---------|

That’s all…………….i hope you’ll enjoy it…..!!!!!!!!!!!!!!!!!!!!!

            
            
Suggest correction
Creating personal tab
Creating personal tab
You can edit any tab online and save it as your Personal.

You can edit, replace or remove any tab part or add personal notes – all changes will be seen only by you.

Personal tabs can be accessed anytime from any device, even offline.
Learn more »
Give kudos to tab author, rate the tab!
1 2 3 4 5
comments
print report bad tab
guest
Wanna post a correction for this tab? Suggest correction