Oops, an error
Loading. Please wait.

April Fools Tab

4,112 views 3 this week
no commentswrite comment
1 2 3 4 5
please rate
add to favorites
launch autoscroll
font size
0
reset
how to read this tab
guitar tuner
Autoscroll
slow
fast
+/-
esc
set tempo
stop
Help us to improve Ultimate-Guitar.com Take our survey!
×
Author
dudebud 521
Chords:  GMaj  Dmin7 A7 Amin7 D7 CMaj7


Intro:


   G                     C
E-----------------------------0--------|-----------------------
B--0---1-3--0-----1--3------------3----|-----------------------
G------------------------0-------------|-REPEAT----------------
D--------------------------------------|-----------------------
A------------------------3--------3----|-----------------------
E--3--------3--------------------------|-----------------------

   A7       A             D7

E--0--2--3--------7-------5---------7--------8-------10--------
B--2---------5------5-----7--7------7--7-----7--7--------------
G--0---------6--------6---5-----5---5----5---5-----5-----------
D--2---------7------------0---------0--------0-----------------
A--0---------0-------------------------------------------------
E--------------------------------------------------------------

Lyrics begin: Verse
   G                    G                  Dmin7
   /    /    /    /    /    /    /    /    /    /    /   /
E---------------------|-------------------|--------------------
B--0------------------|-------------------|-6------------------
G--0------------------|-------------------|-5------------------
D--0------------------|-------------------|-3------------------
A--2------------------|-------------------|-5------------------
E--3------------------|-------------------|--------------------


 Dmin7                 Dmin7               G
  /    /    /    /     /    /    /    /    /    /    /    /   
E---------------------|-------------------|--------------------
B---------------------|-------------------|-0------------------
G---------------------|-------------------|-0------------------
D---------------------|-------------------|-0------------------
A---------------------|-------------------|-2------------------
E---------------------|-------------------|-3------------------
   Verse Repeats

Chorus Starts
  CMaj7                G                   CMaj7
  /    /    /    /     /    /    /    /    /    /    /    /   
E-3-------------------|-3-----------------|-3------------------
B-0-------------------|-0-----------------|-0------------------
G-0-------------------|-0-----------------|-0------------------
D-2-------------------|-0-----------------|-2------------------
A-3-------------------|-2-----------------|-3------------------
E---------------------|-3-----------------|--------------------



  G                    CMaj7               A7
  /    /    /    /     /    /    /    /    /    /    /    /   
E---------------------|-------------------|-0------------------
B---------------------|-------------------|-2------------------
G---------------------|-------------------|-0------------------
D---------------------|-------------------|-2------------------
A---------------------|-------------------|-0------------------
E---------------------|-------------------|--------------------


  Amin7                D7
  /    /    /    /     /    /    /    /    /    /    /    /   
E---------------------|-------------------|--------------------
B-5-------------------|-3-----------------|--------------------
G-5-------------------|-5-----------------|--------------------
D-5-------------------|-4-----------------|--------------------
A-X-------------------|-5-----------------|--------------------
E-5-------------------|-------------------|--------------------

Back to Verse:

Bridge - "Let it all go by"


  G                    G                   CMaj7
  /    /    /    /     /    /    /    /    /    /    /    /   
E---------------------|-------------------|-3------------------
B-0-------------------|-------------------|-0------------------
G-0-------------------|-------------------|-0------------------
D-0-------------------|-------------------|-2------------------
A-2-------------------|-------------------|-3------------------
E-3-------------------|-------------------|--------------------



  CMaj7                G                   G
  /    /    /    /     /    /    /    /    /    /    /    /   
E---------------------|-------------------|--------------------
B---------------------|-------------------|--------------------
G---------------------|-------------------|--------------------
D---------------------|-------------------|--------------------
A---------------------|-------------------|--------------------
E---------------------|-------------------|--------------------



  A7                   A7                  Amin7
  /    /    /    /     /    /    /    /    /    /    /    /   
E---------------------|-0-----------------|--------------------
B---------------------|-2-----------------|-5------------------
G---------------------|-0-----------------|-5------------------
D---------------------|-2-----------------|-5------------------
A---------------------|-0-----------------|-X------------------
E---------------------|-------------------|-5------------------



  Amin7                D7                  D7
  /    /    /    /     /    /    /    /    /    /    /    /   
E---------------------|-------------------|--------------------
B---------------------|-3-----------------|--------------------
G---------------------|-5-----------------|--------------------
D---------------------|-4-----------------|--------------------
A---------------------|-5-----------------|--------------------
E---------------------|-------------------|--------------------
Suggest correction
What's this?
You can suggest a correction to this tab. Community and Mods will review your correction and vote to approve or reject it.
comments
We did not receive enough feedback on this tab! Please rate:
print report bad tab
1 2 3 4 5
guest
You may want to rate the tab now too:
select rating
Please do not post tabs as comments. Select "correction" instead!