Oops, an error
Loading. Please wait.

Hallelujah ukulele

version 2
version 2

Whole song

229 views 1 this week
no commentswrite comment
1 2 3 4 5
3 more votes to show rating
add to favorites
×
Save as Personal and add changes to this tab that will be seen only by you. Learn more ›
×
You can save this tab as Personal to edit and correct it or add notes. All changes will be seen only by you. Learn more »
launch autoscroll
font size
0
reset
transpose
0
reset
display chords
guitar tuner
edit
Autoscroll
slow
fast
+/-
esc
set tempo
stop
Author
Strumming
There is no strumming pattern for this song yet. and get +5 IQ
This is my ukulele version of Hallelujah by Rufus Wainwright. There were no finger
picking tabs online  so I wrote out my version. It may not be perfect, but it is relatively
easy to play if you know how the song goes.

Notes:
  -This song is easiest to count in 3/4.
  -I have labeled the the chords to finger for each series of 6 notes.
  -Every note on the C string is the start of a new chord.
  -(Suggestion) Play the C and G string with your thumb, Play the E and A string with 
    your middle finger
  -You play the string from low to high (CEGA) and then back down (GE) for almost all of 
    the song.
  -For the second part of each verse, you only play 3 notes for the first normal F and G.
  -A chord with a * means its a variation of the original chord (labeled below).
  -Every variation chord adds the 3rd fret on the A string. Thats the only difference.
  -VERSE 1-5 ARE ALL THE SAME.
  -THE FIRST 4 CHORUSES ARE THE SAME.
  -The outro/last chorus gradually slows down where it's marked 'Ritardando.'
  -If you would like me to put a tutorial on youtube, comment and let me know.

Chords in this song:
  -C....(0003)
  -Am*..(2003)
  -F*...(2013)
  -F....(2010)
  -G....(0232)
  -Em...(0402)

INTRO.
  C           Am*         C           Am*
A-------3-----------3-----------3-----------3-----|
E---0-------0---0-------0---0-------0---0-------0-|
C-0-----------0-----------0-----------0-----------|
G-----0---0-------2---2-------0---0-------2---2---|

Verse 1
  C           Am*         C           Am*         F*          G           C           G
A-------3-----------3-----------3-----------3-----------3-----------2-----------3-----------2-----|
E---0-------0---0-------0---0-------0---0-------0---1-------1---3-------0---0-------0---3-------0-|
C-0-----------0-----------0-----------0-----------0-----------2-----------0-----------2-----------|
G-----0---0-------2---2-------0---0-------2---2-------2---2-------0---0-------0---0-------0---0---|

  C           F     G     Am*         F*          G           Em          C           C
A-------3---------0-----2-------3-----------3-----------2-----------2-----------3-----3----------|
E---0-------0---1-----3-----0-------0---1-------1---3-------3---0-------0---0-------0-0----------|
C-0-----------0-----2-----0-----------0-----------2-----------4-----------0-----------0----------|
G-----0---0-------------------2---2-------2---2-------0---0-------0---0-------0---0---0----------|

Chorus
  F*          F*          Am*         Am*         F*          F*          C           G
A-------3-----------3-----------3-----------3-----------3-----------3-----------3-----------2------|
E---1-------1---1-------1---0-------0---0-------0---1-------1---1-------1---0-------0---3-------3--|
C-0-----------0-----------0-----------0-----------0-----------0-----------0-----------2------------|
G-----2---2-------2---2-------2---2-------2---2-------2---2-------2---2-------0---0-------0---0----|

  C           G
A-------3-----------2-----|
E---0-------0---3-------3-|
C-0-----------2-----------|
G-----0---0-------0---0---|

Verse 2 (same as verse 1)
  C           Am*         C           Am*         F*          G           C           G
A-------3-----------3-----------3-----------3-----------3-----------2-----------3-----------2------|
E---0-------0---0-------0---0-------0---0-------0---1-------1---3-------0---0-------0---3-------0--|
C-0-----------0-----------0-----------0-----------0-----------2-----------0-----------2------------|
G-----0---0-------2---2-------0---0-------2---2-------2---2-------0---0-------0---0-------0---0----|

  C           F     G     Am*         F*          G           Em          C           C
A-------3---------0-----2-------3-----------3-----------2-----------2-----------3-----3----------|
E---0-------0---1-----3-----0-------0---1-------1---3-------3---0-------0---0-------0-0----------|
C-0-----------0-----2-----0-----------0-----------2-----------4-----------0-----------0----------|
G-----0---0-------------------2---2-------2---2-------0---0-------0---0-------0---0---0----------|

Chorus
  F*          F*          Am*         Am*         F*          F*          C           G
A-------3-----------3-----------3-----------3-----------3-----------3-----------3-----------2------|
E---1-------1---1-------1---0-------0---0-------0---1-------1---1-------1---0-------0---3-------3--|
C-0-----------0-----------0-----------0-----------0-----------0-----------0-----------2------------|
G-----2---2-------2---2-------2---2-------2---2-------2---2-------2---2-------0---0-------0---0----|

  C           G
A-------3-----------2-----|
E---0-------0---3-------3-|
C-0-----------2-----------|
G-----0---0-------0---0---|

Verse 3 (same as verse 1)
  C           Am*         C           Am*         F*          G           C           G
A-------3-----------3-----------3-----------3-----------3-----------2-----------3-----------2------|
E---0-------0---0-------0---0-------0---0-------0---1-------1---3-------0---0-------0---3-------0--|
C-0-----------0-----------0-----------0-----------0-----------2-----------0-----------2------------|
G-----0---0-------2---2-------0---0-------2---2-------2---2-------0---0-------0---0-------0---0----|

  C           F     G     Am*         F*          G           Em          C           C
A-------3---------0-----2-------3-----------3-----------2-----------2-----------3-----3----------|
E---0-------0---1-----3-----0-------0---1-------1---3-------3---0-------0---0-------0-0----------|
C-0-----------0-----2-----0-----------0-----------2-----------4-----------0-----------0----------|
G-----0---0-------------------2---2-------2---2-------0---0-------0---0-------0---0---0----------|


Chorus
  F*          F*          Am*         Am*         F*          F*          C           G
A-------3-----------3-----------3-----------3-----------3-----------3-----------3-----------2------|
E---1-------1---1-------1---0-------0---0-------0---1-------1---1-------1---0-------0---3-------3--|
C-0-----------0-----------0-----------0-----------0-----------0-----------0-----------2------------|
G-----2---2-------2---2-------2---2-------2---2-------2---2-------2---2-------0---0-------0---0----|

  C           G
A-------3-----------2-----|
E---0-------0---3-------3-|
C-0-----------2-----------|
G-----0---0-------0---0---|

Verse 4 (same as verse 1)
  C           Am*         C           Am*         F*          G           C           G
A-------3-----------3-----------3-----------3-----------3-----------2-----------3-----------2------|
E---0-------0---0-------0---0-------0---0-------0---1-------1---3-------0---0-------0---3-------0--|
C-0-----------0-----------0-----------0-----------0-----------2-----------0-----------2------------|
G-----0---0-------2---2-------0---0-------2---2-------2---2-------0---0-------0---0-------0---0----|

  C           F     G     Am*         F*          G           Em          C           C
A-------3---------0-----2-------3-----------3-----------2-----------2-----------3-----3----------|
E---0-------0---1-----3-----0-------0---1-------1---3-------3---0-------0---0-------0-0----------|
C-0-----------0-----2-----0-----------0-----------2-----------4-----------0-----------0----------|
G-----0---0-------------------2---2-------2---2-------0---0-------0---0-------0---0---0----------|

Chorus
  F*          F*          Am*         Am*         F*          F*          C           G
A-------3-----------3-----------3-----------3-----------3-----------3-----------3-----------2------|
E---1-------1---1-------1---0-------0---0-------0---1-------1---1-------1---0-------0---3-------3--|
C-0-----------0-----------0-----------0-----------0-----------0-----------0-----------2------------|
G-----2---2-------2---2-------2---2-------2---2-------2---2-------2---2-------0---0-------0---0----|

  C           G
A-------3-----------2-----|
E---0-------0---3-------3-|
C-0-----------2-----------|
G-----0---0-------0---0---|

Verse 5 (same as verse 1)
  C           Am*         C           Am*         F*          G           C           G
A-------3-----------3-----------3-----------3-----------3-----------2-----------3-----------2------|
E---0-------0---0-------0---0-------0---0-------0---1-------1---3-------0---0-------0---3-------0--|
C-0-----------0-----------0-----------0-----------0-----------2-----------0-----------2------------|
G-----0---0-------2---2-------0---0-------2---2-------2---2-------0---0-------0---0-------0---0----|

  C           F     G     Am*         F*          G           Em          C           C
A-------3---------0-----2-------3-----------3-----------2-----------2-----------3-----3----------|
E---0-------0---1-----3-----0-------0---1-------1---3-------3---0-------0---0-------0-0----------|
C-0-----------0-----2-----0-----------0-----------2-----------4-----------0-----------0----------|
G-----0---0-------------------2---2-------2---2-------0---0-------0---0-------0---0---0----------|

Outro (last chorus)
  F*          F*          Am*         Am*         F*          F*          C           G
A-------3-----------3-----------3-----------3-----------3-----------3-----------3-----------2------|
E---1-------1---1-------1---0-------0---0-------0---1-------1---1-------1---0-------0---3-------3--|
C-0-----------0-----------0-----------0-----------0-----------0-----------0-----------2------------|
G-----2---2-------2---2-------2---2-------2---2-------2---2-------2---2-------0---0-------0---0----|

                                                                         (Ritardando)
  F*          F*          Am*         Am*         F*          F*          C           G
A-------3-----------3-----------3-----------3-----------3-----------3-----------3-----------2------|
E---1-------1---1-------1---0-------0---0-------0---1-------1---1-------1---0-------0---3-------3--|
C-0-----------0-----------0-----------0-----------0-----------0-----------0-----------2------------|
G-----2---2-------2---2-------2---2-------2---2-------2---2-------2---2-------0---0-------0---0----|

  C           C
A-------3-----3----------|
E---0-------0-0----------|
C-0-----------0----------|
G-----0---0---0----------|
Suggest correction
Creating personal tab
Creating personal tab
You can edit any tab online and save it as your Personal.

You can edit, replace or remove any tab part or add personal notes – all changes will be seen only by you.

Personal tabs can be accessed anytime from any device, even offline.
Learn more »
Give kudos to tab author, rate the tab!
1 2 3 4 5
comments
print report bad tab
guest
You may want to rate the tab now too:
select rating
Wanna post a correction for this tab? Suggest correction