Oops, an error
Loading. Please wait.

Hallelujah Tab

version 4
version 4
10,899 views 9 this week
1 commentread comment
1 2 3 4 5
please rate
add to favorites
launch autoscroll
font size
0
reset
how to read this tab
guitar tuner
Tab Pro tools
  • play this tab
  • loop segment
  • change instrument
  • show fretboard
  • metronome
×
Best way to learn
"Hallelujah"
Autoscroll
slow
fast
+/-
esc
set tempo
stop
Contributor
Difficulty
intermediate
|--------3------------3----------3-------------3----|
|------3---3--------3---3------3---3---------3---3--|
|----0-------0----0----------0-------0-----0-------0|
|---------------------------------------------------|
|---------------------------------------------------|
|--3------------0----------3-------------0----------|
I've heard there was a secret cord, that David played and it pleesed the lord.

|--------3------------2------------3------------2----|
|------3---3--------3---3--------3---3--------3---3--|
|----0-------0----2-------2----0-------0----2-------2|
|---------------0-------------------------0----------|
|--3-------------------------------------------------|
|----------------------------3-----------------------|
But you don’t really care for music do you?

|--------3--------3----2--------3------------3----|
|------3---3------3----3------3---3--------3---3--|
|----0-------0--------------0-------0----0-------0|
|--------------------0----------------------------|
|---------------3----------------------3----------|
|--3----------------------0-----------------------|
It goes like this, the fourth, the fifth, the minor fall, the major lift.

|--------2------------2------------3------------3----|
|------3---3--------3---3--------3---3--------3---3--|
|----2-------2----4-------4----0-------0----0-------0|
|--0-------------------------------------------------|
|---------------2------------------------------------|
|----------------------------0------------0----------|
The baffled King composing Hallelujah

|--------3------------3------------3------------3----|
|------3---3--------3---3--------3---3--------3---3--|
|----0-------0----0-------0----0-------0----0-------0|
|----------------------------------------------------|
|--3------------3------------------------------------|
|----------------------------0------------0----------|
Hallelujah, Hallelujah.

|--------3------------3------------3------------2------------3----|
|------3---3--------3---3--------3---3--------3---3--------3---3--|
|----0-------0----0-------0----0-------0----2-------2----0-------0|
|-----------------------------------------0-----------------------|
|--3------------3-------------------------------------------------|
|----------------------------0-------------------------3----------|
Hallelujah, Halleluu-uu-uujah.



|--------3------------3----------3-------------3----|
|------3---3--------3---3------3---3---------3---3--|
|----0-------0----0----------0-------0-----0-------0|
|---------------------------------------------------|
|---------------------------------------------------|
|--3------------0----------3-------------0----------|
Your faith was strong but you needed proof you saw her bathing on the roof.

|--------3------------2------------3------------2----|
|------3---3--------3---3--------3---3--------3---3--|
|----0-------0----2-------2----0-------0----2-------2|
|---------------0-------------------------0----------|
|--3-------------------------------------------------|
|----------------------------3-----------------------|
Her beauty in the moonlight overthrew you

|--------3--------3----2--------3------------3----|
|------3---3------3----3------3---3--------3---3--|
|----0-------0--------------0-------0----0-------0|
|--------------------0----------------------------|
|---------------3----------------------3----------|
|--3----------------------0-----------------------|
She tied you to a kitchen chair She broke your throne, and she cut your hair

|--------2------------2------------3------------3----|
|------3---3--------3---3--------3---3--------3---3--|
|----2-------2----4-------4----0-------0----0-------0|
|--0-------------------------------------------------|
|---------------2------------------------------------|
|----------------------------0------------0----------|
And from your lips she drew the hallelujah

|--------3------------3------------3------------3----|
|------3---3--------3---3--------3---3--------3---3--|
|----0-------0----0-------0----0-------0----0-------0|
|----------------------------------------------------|
|--3------------3------------------------------------|
|----------------------------0------------0----------|
Hallelujah, Hallelujah.

|--------3------------3------------3------------2------------3----|
|------3---3--------3---3--------3---3--------3---3--------3---3--|
|----0-------0----0-------0----0-------0----2-------2----0-------0|
|-----------------------------------------0-----------------------|
|--3------------3-------------------------------------------------|
|----------------------------0-------------------------3----------|
Hallelujah, Halleluu-uu-uujah.



|--------3------------3----------3-------------3----|
|------3---3--------3---3------3---3---------3---3--|
|----0-------0----0----------0-------0-----0-------0|
|---------------------------------------------------|
|---------------------------------------------------|
|--3------------0----------3-------------0----------|
Maybe I’ve been here before I know this room, I’ve walked this floor,

|--------3------------2------------3------------2----|
|------3---3--------3---3--------3---3--------3---3--|
|----0-------0----2-------2----0-------0----2-------2|
|---------------0-------------------------0----------|
|--3-------------------------------------------------|
|----------------------------3-----------------------|
I used to live alone before I knew you

|--------3--------3----2--------3------------3----|
|------3---3------3----3------3---3--------3---3--|
|----0-------0--------------0-------0----0-------0|
|--------------------0----------------------------|
|---------------3----------------------3----------|
|--3----------------------0-----------------------|
I’ve seen your flag on the marble arch love is not a victory march

|--------2------------2------------3------------3----|
|------3---3--------3---3--------3---3--------3---3--|
|----2-------2----4-------4----0-------0----0-------0|
|--0-------------------------------------------------|
|---------------2------------------------------------|
|----------------------------0------------0----------|
It’s a cold and it’s a broken hallelujah

|--------3------------3------------3------------3----|
|------3---3--------3---3--------3---3--------3---3--|
|----0-------0----0-------0----0-------0----0-------0|
|----------------------------------------------------|
|--3------------3------------------------------------|
|----------------------------0------------0----------|
Hallelujah, Hallelujah.

|--------3------------3------------3------------2------------3----|
|------3---3--------3---3--------3---3--------3---3--------3---3--|
|----0-------0----0-------0----0-------0----2-------2----0-------0|
|-----------------------------------------0-----------------------|
|--3------------3-------------------------------------------------|
|----------------------------0-------------------------3----------|
Hallelujah, Halleluu-uu-uujah.



|--------3------------3----------3-------------3----|
|------3---3--------3---3------3---3---------3---3--|
|----0-------0----0----------0-------0-----0-------0|
|---------------------------------------------------|
|---------------------------------------------------|
|--3------------0----------3-------------0----------|
There was a time when you let me know, What’s real and going on below

|--------3------------2------------3------------2----|
|------3---3--------3---3--------3---3--------3---3--|
|----0-------0----2-------2----0-------0----2-------2|
|---------------0-------------------------0----------|
|--3-------------------------------------------------|
|----------------------------3-----------------------|
But now you never show it to me, do you?

|--------3--------3----2--------3------------3----|
|------3---3------3----3------3---3--------3---3--|
|----0-------0--------------0-------0----0-------0|
|--------------------0----------------------------|
|---------------3----------------------3----------|
|--3----------------------0-----------------------|
And remember when I moved in you the Holy Dark was moving too

|--------2------------2------------3------------3----|
|------3---3--------3---3--------3---3--------3---3--|
|----2-------2----4-------4----0-------0----0-------0|
|--0-------------------------------------------------|
|---------------2------------------------------------|
|----------------------------0------------0----------|
And every breath we drew was hallelujah

|--------3------------3------------3------------3----|
|------3---3--------3---3--------3---3--------3---3--|
|----0-------0----0-------0----0-------0----0-------0|
|----------------------------------------------------|
|--3------------3------------------------------------|
|----------------------------0------------0----------|
Hallelujah, Hallelujah.

|--------3------------3------------3------------2------------3----|
|------3---3--------3---3--------3---3--------3---3--------3---3--|
|----0-------0----0-------0----0-------0----2-------2----0-------0|
|-----------------------------------------0-----------------------|
|--3------------3-------------------------------------------------|
|----------------------------0-------------------------3----------|
Hallelujah, Halleluu-uu-uujah.



|--------3------------3----------3-------------3----|
|------3---3--------3---3------3---3---------3---3--|
|----0-------0----0----------0-------0-----0-------0|
|---------------------------------------------------|
|---------------------------------------------------|
|--3------------0----------3-------------0----------|
Maybe there’s a God above, And all I ever learned from love

|--------3------------2------------3------------2----|
|------3---3--------3---3--------3---3--------3---3--|
|----0-------0----2-------2----0-------0----2-------2|
|---------------0-------------------------0----------|
|--3-------------------------------------------------|
|----------------------------3-----------------------|
Was how to shoot at someone who outdrew you

|--------3--------3----2--------3------------3----|
|------3---3------3----3------3---3--------3---3--|
|----0-------0--------------0-------0----0-------0|
|--------------------0----------------------------|
|---------------3----------------------3----------|
|--3----------------------0-----------------------|
And it’s not a cry you can hear at night, It’s not somebody who’s seen the light

|--------2------------2------------3------------3----|
|------3---3--------3---3--------3---3--------3---3--|
|----2-------2----4-------4----0-------0----0-------0|
|--0-------------------------------------------------|
|---------------2------------------------------------|
|----------------------------0------------0----------|
It’s a cold and it’s a broken hallelujah

|--------3------------3------------3------------3----|
|------3---3--------3---3--------3---3--------3---3--|
|----0-------0----0-------0----0-------0----0-------0|
|----------------------------------------------------|
|--3------------3------------------------------------|
|----------------------------0------------0----------|
Hallelujah, Hallelujah.

|--------3------------3------------3------------3----|
|------3---3--------3---3--------3---3--------3---3--|
|----0-------0----0-------0----0-------0----0-------0|
|----------------------------------------------------|
|--3------------3------------------------------------|
|----------------------------3------------3----------|
Hallelujah, Hallelujah.

|--------3------------3------------3------------3----|
|------3---3--------3---3--------3---3--------3---3--|
|----0-------0----0-------0----0-------0----0-------0|
|----------------------------------------------------|
|--3------------3------------------------------------|
|----------------------------0------------0----------|
Hallelujah, Hallelujah.

|--------3------------3------------3------------2------------3----|
|------3---3--------3---3--------3---3--------3---3--------3---3--|
|----0-------0----0-------0----0-------0----2-------2----0-------0|
|-----------------------------------------0-----------------------|
|--3------------3-------------------------------------------------|
|----------------------------0-------------------------3----------|
Hallelujah, Halleluu-uu-uujah.
comments
We did not receive enough feedback on this tab! Please rate:
print report bad tab
1 2 3 4 5
1 comment total.
0 reply
thuva94 wrote on February 3 2009, 11:26 am

have u even listened to the song?

I want to post or [tab]
guest
You may want to rate the tab now too:
select rating
Please do not post tabs as comments. Select "correction" instead!