Oops, an error
Loading. Please wait.

Hallelujah Tab

version 5
version 5
1,413 views 6 this week
1 commentread comment
1 2 3 4 5
2 more votes to show rating
add to favorites
launch autoscroll
font size
0
reset
how to read this tab
guitar tuner
Autoscroll
slow
fast
+/-
esc
set tempo
stop
Help us to improve Ultimate-Guitar.com Take our survey!
×
Author
Difficulty
intermediate
Tabbed by A7xman55
I don't know if these are completely right guys. You can take it by ear and mess 
with these tabs, but this is what I got. I just did sweep picking on the chords 
for the song (C, Am, F, G, E7). 
Tuning: Standard(E)EADGBe

Intro:
e|--------------------------|
B|---1------1------1------1-|
G|--0-0----2-2----0-0----2-2|
D|-2------2------2------2---|
A|3----2-0----2-3----2-0----|
E|--------------------------|

Verse 1:
e|--------------------------------------------------------------------|
B|---1------1------1------1--------------------1-------------1------1-|
G|--0-0----2-2----0-0----2-2-----2------4-----0-0-----4-----0-0----2-2|
D|-2------2------2------2-------3-3----5-5---2-------5-5---2------2---|
A|3----2-0----2-3----2-0-------3------5---2-3-------5---2-3----2-0----|
E|--------------------------0-1----1-3-----------1-3------------------|

e|------------------------------------------------------|
B|---1--------------------1---------------------------1-|
G|--0-0-----2------4-----2-2-----2------4------1-----2-2|
D|-2-------3-3----5-5---2-------3-3----5-5----0-0---2---|
A|3-------3------5---5-0-------3------5------2-----0----|
E|-----0-1----1-3-----------0-1----1-3----1-0----0------|

Chorus 1:
e|------------------------------------------------------------------|
B|------------1-------------1-------------1------1------1------1----|
G|-----4-----2-2-----2-----0-0-----4-----0-0----0-0----0-0----0-0---|
D|----3-3---2-------3-3---2-------5-5---2---2--2---2--2---2--2---2--|
A|---3-----0-------3---2-3-------5---2-3------3------3------3------3|
E|0-1----0------0-1-----------1-3-----------------------------------|


Verse 3:
e|--------------------------------------------------------------------|
B|---1------1------1------1--------------------1-------------1------1-|
G|--0-0----2-2----0-0----2-2-----2------4-----0-0-----4-----0-0----2-2|
D|-2------2------2------2-------3-3----5-5---2-------5-5---2------2---|
A|3----2-0----2-3----2-0-------3------5---2-3-------5---2-3----2-0----|
E|--------------------------0-1----1-3-----------1-3------------------|

e|------------------------------------------------------|
B|---1--------------------1---------------------------1-|
G|--0-0-----2------4-----2-2-----2------4------1-----2-2|
D|-2-------3-3----5-5---2-------3-3----5-5----0-0---2---|
A|3-------3------5---5-0-------3------5------2-----0----|
E|-----0-1----1-3-----------0-1----1-3----1-0----0------|

Chorus 2:
e|------------------------------------------------------------------|
B|------------1-------------1-------------1------1------1------1----|
G|-----4-----2-2-----2-----0-0-----4-----0-0----0-0----0-0----0-0---|
D|----3-3---2-------3-3---2-------5-5---2---2--2---2--2---2--2---2--|
A|---3-----0-------3---2-3-------5---2-3------3------3------3------3|
E|0-1----0------0-1-----------1-3-----------------------------------|


Verse 3:
e|--------------------------------------------------------------------|
B|---1------1------1------1--------------------1-------------1------1-|
G|--0-0----2-2----0-0----2-2-----2------4-----0-0-----4-----0-0----2-2|
D|-2------2------2------2-------3-3----5-5---2-------5-5---2------2---|
A|3----2-0----2-3----2-0-------3------5---2-3-------5---2-3----2-0----|
E|--------------------------0-1----1-3-----------1-3------------------|

e|------------------------------------------------------|
B|---1--------------------1---------------------------1-|
G|--0-0-----2------4-----2-2-----2------4------1-----2-2|
D|-2-------3-3----5-5---2-------3-3----5-5----0-0---2---|
A|3-------3------5---5-0-------3------5------2-----0----|
E|-----0-1----1-3-----------0-1----1-3----1-0----0------|

Chorus 3:
e|------------------------------------------------------------------|
B|------------1-------------1-------------1------1------1------1----|
G|-----4-----2-2-----2-----0-0-----4-----0-0----0-0----0-0----0-0---|
D|----3-3---2-------3-3---2-------5-5---2---2--2---2--2---2--2---2--|
A|---3-----0-------3---2-3-------5---2-3------3------3------3------3|
E|0-1----0------0-1-----------1-3-----------------------------------|


Verse 4:
e|--------------------------------------------------------------------|
B|---1------1------1------1--------------------1-------------1------1-|
G|--0-0----2-2----0-0----2-2-----2------4-----0-0-----4-----0-0----2-2|
D|-2------2------2------2-------3-3----5-5---2-------5-5---2------2---|
A|3----2-0----2-3----2-0-------3------5---2-3-------5---2-3----2-0----|
E|--------------------------0-1----1-3-----------1-3------------------|

e|------------------------------------------------------|
B|---1--------------------1---------------------------1-|
G|--0-0-----2------4-----2-2-----2------4------1-----2-2|
D|-2-------3-3----5-5---2-------3-3----5-5----0-0---2---|
A|3-------3------5---5-0-------3------5------2-----0----|
E|-----0-1----1-3-----------0-1----1-3----1-0----0------|

Chorus 4:
e|------------------------------------------------------------------|
B|------------1-------------1-------------1------1------1------1----|
G|-----4-----2-2-----2-----0-0-----4-----0-0----0-0----0-0----0-0---|
D|----3-3---2-------3-3---2-------5-5---2---2--2---2--2---2--2---2--|
A|---3-----0-------3---2-3-------5---2-3------3------3------3------3|
E|0-1----0------0-1-----------1-3-----------------------------------|


Verse 5:
e|--------------------------------------------------------------------|
B|---1------1------1------1--------------------1-------------1------1-|
G|--0-0----2-2----0-0----2-2-----2------4-----0-0-----4-----0-0----2-2|
D|-2------2------2------2-------3-3----5-5---2-------5-5---2------2---|
A|3----2-0----2-3----2-0-------3------5---2-3-------5---2-3----2-0----|
E|--------------------------0-1----1-3-----------1-3------------------|

e|------------------------------------------------------|
B|---1--------------------1---------------------------1-|
G|--0-0-----2------4-----2-2-----2------4------1-----2-2|
D|-2-------3-3----5-5---2-------3-3----5-5----0-0---2---|
A|3-------3------5---5-0-------3------5------2-----0----|
E|-----0-1----1-3-----------0-1----1-3----1-0----0------|

Chorus 5:
e|----------------------------------------------------------------------|
B|------------1-------------1--------------------1-------------1--------|
G|-----4-----2-2-----2-----0-0-----4------4-----2-2-----2-----0-0-----4-|
D|----3-3---2-------3-3---2-------5-5----3-3---2-------3-2---2-------5-5|
A|---3-----0-------3---2-3-------5------3-----0-------3---2-3-------5---|
E|0-1----0------0-1-----------1-3----3-1----0------0-1-----------1-3----|

Outro:
e|----0|
B|---1-|
G|--0--|
D|-2---|
A|3----|
E|-----|
 Slowly
Suggest correction
Give kudos to tab author, rate the tab!
1 2 3 4 5
comments
print report bad tab
1 comment total.
0 reply
A7xman55 31 Mar 21, 2013 12:53 PM

Hallelujah - Rufus Wainwright
Guitar Transcribed

Tabbed by: Alex Brown/A7xman55 (Sabath Nightlocke)

I don't know if these are completely right guys. You can take it by ear and mess
with these tabs, but this is what I got. I just did sweep picking on the chords
for the song (C, Am, F, G, E7).

Edit: I would like to apologize to anyone who used the tabs before. I hadn't done a lot of refining on the tabs which is why this is on me, but after having played this song (many, many, many times), I finally looked at this tab and realized how off it was. This is the corrected tab, and I'm sure that these are correct. I've added a chart below the tab with the fingerings for each chord in the song. Thank you!

Tuning: Standard EADGBe

Intro:
C Am C Am
e|-----------------------------|
B|----1------1------1------1---|
G|---0-0----2-2----0-0----2-2--|
D|--2------2------2------2-----|
A|-3----2-0----2-3----2-0----2-|
E|-----------------------------|

Verse 1:
C Am C Am F G C G
e|---------------------------------------------------------|
B|----1------1------1------1--------------------1----------|
G|---0-0----2-2----0-0----2-2-----2------0-----0-0-----0---|
D|--2------2------2------2-------3-3----0-0---2-------0-0--|
A|-3----2-0----2-3----2-0-------3------2---2-3-------2---2-|
E|---------------------------0-1----1-3-----------1-3------|

C F G Am F G E7 Am
e|-----------------------------------------------------–-|
B|----1--------------1---------------------------1-------|
G|---0-0------------2-2-----2------0------1-----2-2------|
D|--2-------3---0--2-------3-3----0-0----0-0---2---2-----|
A|-3----2--3---2--0-------3------2------2---2-0-----0----|
E|--------1---3--------0-1----1-3----1-0-----------------|

Chorus 1:
F Am F C G
e|------------------------------------------------------|
B|----1-----1------1-----1------1-----1------1----------|
G|---2-2---2-2----2-2---2-2----2-2---2-2----0-0-----1---|
D|--3---3-3------2---2-2------3---3-3---3--2-------0-0--|
A|-3-----3----2-0-----0----2-3-----3------3----2--2---2-|
E|-----------------------------------------------3------|

C G
e|---------------|
B|----1----------|
G|---0-0-----1---|
D|--2-------0-0--|
A|-3----2--2---2-|
E|--------3------|

Verse 2:
C Am C Am F G C G
e|---------------------------------------------------------|
B|----1------1------1------1--------------------1----------|
G|---0-0----2-2----0-0----2-2-----2------0-----0-0-----0---|
D|--2------2------2------2-------3-3----0-0---2-------0-0--|
A|-3----2-0----2-3----2-0-------3------2---2-3-------2---2-|
E|---------------------------0-1----1-3-----------1-3------|

C F G Am F G E7 Am
e|-----------------------------------------------------–-|
B|----1--------------1---------------------------1-------|
G|---0-0------------2-2-----2------0------1-----2-2------|
D|--2-------3---0--2-------3-3----0-0----0-0---2---2-----|
A|-3----2--3---2--0-------3------2------2---2-0-----0----|
E|--------1---3--------0-1----1-3----1-0-----------------|

Chorus 2:
F Am F C G
e|------------------------------------------------------|
B|----1-----1------1-----1------1-----1------1----------|
G|---2-2---2-2----2-2---2-2----2-2---2-2----0-0-----1---|
D|--3---3-3------2---2-2------3---3-3---3--2-------0-0--|
A|-3-----3----2-0-----0----2-3-----3------3----2--2---2-|
E|-----------------------------------------------3------|

C G
e|---------------|
B|----1----------|
G|---0-0-----1---|
D|--2-------0-0--|
A|-3----2--2---2-|
E|--------3------|

Verse 3:
C Am C Am F G C G
e|---------------------------------------------------------|
B|----1------1------1------1--------------------1----------|
G|---0-0----2-2----0-0----2-2-----2------0-----0-0-----0---|
D|--2------2------2------2-------3-3----0-0---2-------0-0--|
A|-3----2-0----2-3----2-0-------3------2---2-3-------2---2-|
E|---------------------------0-1----1-3-----------1-3------|

C F G Am F G E7 Am
e|-----------------------------------------------------–-|
B|----1--------------1---------------------------1-------|
G|---0-0------------2-2-----2------0------1-----2-2------|
D|--2-------3---0--2-------3-3----0-0----0-0---2---2-----|
A|-3----2--3---2--0-------3------2------2---2-0-----0----|
E|--------1---3--------0-1----1-3----1-0-----------------|

Chorus 3:
F Am F C G
e|------------------------------------------------------|
B|----1-----1------1-----1------1-----1------1----------|
G|---2-2---2-2----2-2---2-2----2-2---2-2----0-0-----1---|
D|--3---3-3------2---2-2------3---3-3---3--2-------0-0--|
A|-3-----3----2-0-----0----2-3-----3------3----2--2---2-|
E|-----------------------------------------------3-----

guest
You may want to rate the tab now too:
select rating
Wanna post a correction for this tab? Suggest correction