Oops, an error
Loading. Please wait.

Hallelujah Tab

version 6
version 6
827 views 3 this week
no commentswrite comment
1 2 3 4 5
please rate
add to favorites
launch autoscroll
font size
0
reset
how to read this tab
guitar tuner
Autoscroll
slow
fast
+/-
esc
set tempo
stop
Help us to improve Ultimate-Guitar.com Take our survey!
×
Author
Difficulty
novice
Please note! I didn't write this tab! All  credit for this should go to  phleigm, 
I was just playing along with it and the adjustments I made were simply how 
I thought it sounded best in accordance with the piano.
 I seriously just copy/pasted his tab and made my tweaks on the intro and the one FGCG run. 
Hope you enjoy!


C           Am          C           Am
|--------0-----------0-----------0-----------0-----|
|------1---1-------1---1-------1---1-------1---1---|
|----0-----------2-----------0-----------2---------|
|--------------------------------------------------|
|--3---------2-0---------2-3---------2-0-----------|
|--------------------------------------------------|


On the peak of the Am the open e is the easiest and smoothest to play in my opinion, 
however the piano sounds best if you play the 5th fret instead, however it breaks up 
the slur and sounds choppier. This is what it looks like:

  C           Am          C           Am
|--------0-----------5-----------0-----------5-----|
|------1---1-------1---1-------1---1-------1---1---|
|----0-----------2-----------0-----------2---------|
|--------------------------------------------------|
|--3---------2-0---------2-3---------2-0-----------|
|--------------------------------------------------|


I've heard there was a secret chord
That David played and it pleased the Lord




   F             G             C             G
|--------1-----------3-----------0-----------3-----|
|------1---1-------3---3-------1-----------3---3---|
|----2-------2---0-------0---0-----------0-------0-|
|--------------------------------------------------|
|--------------------------3-----------------------|
|--1-----------3-------------------0-1-3-----------|

But you don't really care for music do you?

   C                F           G           Am               F
|--------0-----------------------0-----------1-----|
|------1---1-------1-----3-----1---1-------1---1---|
|----0-------0---2-----0-----2-------2---2-------2-|
|--------------------------------------------------|
|--3-----------------------0-----------------------|
|--------------1-----3-----------------1-----------|

It goes like this, the fourth, the fifth
The minor fall, the major lift

   G           Em          Am
|--------3-----------0-----------0-----------0-----|
|------3---3-------0---0-------1---1-------1---1---|
|----0-------0---0-------0---2-------2---2-------2-|
|--------------------------------------------------|
|--------------------------0-----------0-----------|
|--3-----------0-----------------------------------|

The baffled King composing Hallelujah

   F                       Am
|--------1-----------1-----------0-----------0-----|
|------1---1-------1---1-------1---1-------1---1---|
|----2-------2---2-------2---2-------2---2-------2-|
|--------------------------------------------------|
|--------------------------0-----------0-----------|
|--1-----------1-----------------------------------|

Hallelujah, hallelujah

   F                       C           G           C           G
|--------1-----------1-----------0-----------3-----------0-----------3-----|
|------1---1-------1---1-------1---1-------3---3-------1---1-------3---3---|
|----2-------2---2-------2---0-------0---0-------0---0-------0---0-------0-|
|--------------------------------------------------------------------------|
|--------------------------3-----------------------3-----------------------|
|--1-----------1-----------------------3-----------------------3-----------|
    F           C-G-C-G
Hallelujah, hallelujah



:ending:
   F                       C           G           C
|--------1-----------1-----------0-----------3-----------0------0--|
|------1---1-------1---1-------1---1-------3---3-------1---1----1--|
|----2-------2---2-------2---0-------0---0-------0---0-------0--0--|
|---------------------------------------------------------------2--|
|--------------------------3-----------------------3------------3--|
|--1-----------1-----------------------3---------------------------|


     c                 Am
I've heard there was a secret chord
     c                 Am
That David played, and it pleased the Lord
  F                G             c        G
But you don't really care for music, do you?
  c                   F           g
It goes like this, the fourth, the fifth
    Am              F
The minor fall, the major lift
    G                 Em        Am
The baffled king composing Hallelujah
    F           Am
Hallelujah, Hallelujah
    F           C-G-C-G
Hallelujah, Hallelujah

     c                 Am
Your faith was strong but you needed proof
     c                 Am
You saw her bathing on the roof
  F                G             c        G
Her beauty in the moonlight overthrew you
  c                   F   G
She tied you to a kitchen chair
    Am              F 
She broke your throne, she cut your hair
    G                 Em        Am
And from your lips she drew the Hallelujah
    F           Am
Hallelujah, Hallelujah
    F           C-G-C-G
Hallelujah, Hallelujah 

     c                 Am
Maybe I've been here before
     c                 Am
I know this room, I've walked this floor
  F                G             c        G
I used to live alone before I knew you
  c                   F           G
I've seen your flag on the marble arch
    Am              F
love is not a victory march
    G                 Em        Am
It's a cold and it's a broken hallelujah
    F           Am
Hallelujah, Hallelujah
    F           C-G-C-G
Hallelujah, Hallelujah 

     c                 Am
There was a time you'd let me know
     c                 Am
What's real and going on below
  F                G             c        G
But now you never show it to me do you?
  c              F       G
Remember when I moved in you?
    Am              F
The holy dark was moving too
    G                 Em        Am
And every breath we drew was hallelujah
    F           Am
Hallelujah, Hallelujah
    F           C-G-C-G
Hallelujah, Hallelujah 

     c                 Am
Maybe there's a God above
     c                 Am
And all I ever learned from love
  F                G             c        G
Was how to shoot at someone who outdrew you
  c                   F           G
It's not a cry you can hear at night
    Am              F
It's not somebody who's seen the light
    G                 Em        Am
It's a cold and it's a broken hallelujah
    F           Am
Hallelujah, Hallelujah
    F           C-G
Hallelujah, Hallelujah
    F           Am
Hallelujah, Hallelujah
    F           C-G-c
Hallelujah, Hallelujah
Suggest correction
What's this?
You can suggest a correction to this tab. Community and Mods will review your correction and vote to approve or reject it.
comments
We did not receive enough feedback on this tab! Please rate:
print report bad tab
1 2 3 4 5
guest
You may want to rate the tab now too:
select rating
Please do not post tabs as comments. Select "correction" instead!