Oops, an error
Loading. Please wait.

I Dont Know What It Is Bass Tab

695 views 1 this week
1 commentread comment
1 2 3 4 5
please rate
add to favorites
launch autoscroll
font size
0
reset
guitar tuner
Autoscroll
slow
fast
+/-
esc
set tempo
stop
Help us to improve Ultimate-Guitar.com Take our survey!
×
Author
Hope the structure is not too confusing in the tab.

Standard tuning (E-A-D-G)

No bass till about 0:57 into the song (as heard on the album "Want One")

And of all that I do...
|------------------------------|
|------------------------------|
|-2---/--7---------------------|
|---------------7-----0--------|

So I knock on the door
|--------------------------------------------------------|
|--------------------------------------------------------|
|-------------------------------------3-----5-----7------|
|-5-----4-----2-----0-----5-----7---------------------7--|

|--------------------------------------------------------|
|--------------------------------------------------------|
|-7-------7-------7-------7-------7-------7-------7------|
|-----7-------7-------7-------7-------7-------7-------7--|

|---------------------------------------------------------|
|---------------------------------------------------------|
|-----7---6---------------4-------6-----------------------|
|-2-----------7---5---2-------5-------4---2-2-2-2-2-2-2-2-|

|--------------------|
|----------------9---|
|-----------7-/9---9-|
|-7-7-7-7-7----------|

|--------------------------------------------------------|
|--------------------------------------------------------|
|-7-------7-------7-------7-------7-------7-------7------|
|-----7-------7-------7-------7-------7-------7-------7--|

|---------------------------------------------------------|
|---------------------------------------------------------|
|---------6---------------4-------6-----------------------|
|-2---5-------7---5---2-------5-------4---2-2-2-2-2-2-2-2-|

|-----------------|
|-----------------|
|-----------------|
|-7-7-7-7-7-7-7-7-|

So I knock on the door
|-------------------------------------9--------------------------|
|---------------------------------------9------------------------|
|-----------------------------------------3-------5-------7------|
|-5-----4-----2-----0-----5---0---7-----------3-------5-------7--|

To... To get me over
|-----------------------------------------------------------------------|
|-----------------------------------------------------------------------|
|---------7-------7-------7-------7-------7-------7-------7-------7-----|
|-0---7-------7-------7-------7-------7-------7-------7-------7-------7-|

|------------|-----------------------------------------------------------|
|----6-------|-----------------------------------------------------------|
|-7-----9--7-|-------------------4-----2---------------------------------|
|------------|-5-----4-----2-----------------5-----2-----4-----5-----7---|

|------------12--------|--------------------------------------------------|
|-----11-11--------11--|-----------------7--6-----------------------------|
|-----------------------|-7-------7-------------9--7----------------------|
|-9---------------------|-----7-------7------------------5---5---4---4----|

|---------------|
|---------------|
|-4---4---------|
|---------2-----|

|-----------------------------------------------------------------|
|-----------------------------------------------------------------|
|-------------------------------2-----4-----6---6---6---6---6---6-|
|-5-----4-----2-----4-----5---------------------------------------|

|-9-9-9-9-9-9-9-9-9-9h11-11-9-9h11-11-9-9-------------------------|
|-----------------------------------------------------------------|
|------------------------------------------10-10-10-999-----10----|
|-------------------------------------------------------88------5-|

|-------------------------------------------------------------5--|
|-----9-------9-------9-------7-------9-------9-------7----------|
|---------------------------------------------------------3------|
|-7-------7-------7-------5-------7-------7-------5--------------|

|----------------|--------|-----|
|-----9-------9--|*------*|-----|
|----------------|*-7----*|-----|
|-7-------7------|-----7--|-0~--|
Suggest correction
What's this?
You can suggest a correction to this tab. Community and Mods will review your correction and vote to approve or reject it.
comments
We did not receive enough feedback on this tab! Please rate:
print report bad tab
1 2 3 4 5
1 comment total.
0 reply
Maitinin 23,610 wrote on February 5 2008, 02:45 pm

great, but it'd be great with some bars and chords

guest
You may want to rate the tab now too:
select rating
Please do not post tabs as comments. Select "correction" instead!