Oops, an error
Loading. Please wait.

In A Graveyard ukulele

198 views 1 this week
no commentswrite comment
1 2 3 4 5
3 more votes to show rating
add to favorites
×
Save as Personal and add changes to this tab that will be seen only by you. Learn more ›
×
You can save this tab as Personal to edit and correct it or add notes. All changes will be seen only by you. Learn more »
launch autoscroll
font size
0
reset
transpose
0
reset
display chords
guitar tuner
edit
Autoscroll
slow
fast
+/-
esc
set tempo
stop
Author
Difficulty
Strumming
There is no strumming pattern for this song yet. and get +5 IQ
This is actually a ukulele tab, not chords, but uke tab isn't an option for filing.

This was all done by me by ear, so it might not be perfect, but it's my first tab ever and hopefully you 
enjoy it!

All strumming of chords is down, unless otherwise specified. Listen to the song to get the feel of when to 
pick with the lyrics.


Intro

A----0--------0--3--0--------1--------1-----------------------0-|
E----1-----1-----------1-----1--------1--3--1--0--------1--3--0-|
C----0--0-----------------0--2-----0--2-----------2--0--0--0--0-|
G----2-----------------------2--------2-----------------0--0--0-|
                                                      (up)(up)

Verse 1

    Wondering properties of death. Arresting moon within our eyes and smiles we did rest
A----0--------0--3--0--------1---------1--------------------------------0------------1-|
E----1-----1-----------1-----1---------1--3----1---0----------1----3----0-----1------1-|
C----0--0-----------------0--2-----0---2-------------2--0-----0----0----0--------0---2-|
G----2-----------------------2---------2----------------------0----0----0------------2-|
                                                            (up) (up)

     Amongst the granite tombs to catch our breath.
A---------------------------------------------0-|
E-------------3---1---0-------------1----3----0-|
C-----0---2----------------2----0---0----0----0-|
G-----------------------------------0----0----0-|
                                   (up) (up)

Chorus

      Worldly    sounds of endless warring were for just a moment silent stars.
A----0--------0-----3----0-----------1-------1-----------------------------0----1---------0-|
E----1-----1-----------------1-------1-------1---3----1--0---------1--3----0----3---3-----1-|
C----0--0-----------------------0----2--0----2--------------2--0---0--0----0----3------3--0-|
G----2-------------------------------2-------2---------------------0--0----0----0---------2-|
                                                                 (up)(up)

      Worldly      boundaries of  dying  were for just a moment  never ours, all was new
A----0--------0-----3--0-----------1-------1-----------------------------0------------1-|
E----1-----1---------------1-------1-------1---3----1--0---------1--3----0----1-------1-|
C----0--0---------------------0----2--0----2--------------2--0---0--0----0--------0---2-|
G----2-----------------------------2-------2---------------------0--0----0------------2-|
                                                               (up)(up)

    Just as  the black horizons blue.
A-------------------------------------------0--1----|
E-------------3----1---0----------1----1----1--3--3-|
C-----0---2---------------2--0----0----3----3--3--3-|
G---------------------------------0----0----2--0----|
                                (up) (up) (up)

Verse 2
     Then along the bending path away, I smiled knowing I'd be back one day.
A-----0----------0----3--0----------1-----1---------------------0----3------------|
E-----1-------1---------------1-----1-----1--3---1---0----------1----0----1-----1-|
C-----0----0---------------------0--2--0--2--------------2--0---0----0----0-------|
G-----2-----------------------------2-----2---------------------2----0----0-------|
                                                              (up) (up)

Thanks for looking at my tab! :)


            
            
Suggest correction
Creating personal tab
Creating personal tab
You can edit any tab online and save it as your Personal.

You can edit, replace or remove any tab part or add personal notes – all changes will be seen only by you.

Personal tabs can be accessed anytime from any device, even offline.
Learn more »
Give kudos to tab author, rate the tab!
1 2 3 4 5
comments
print report bad tab
guest
You may want to rate the tab now too:
select rating
Wanna post a correction for this tab? Suggest correction