Oops, an error
Loading. Please wait.

Sanssouci Chords

version 2
version 2

Whole song

Interactive

1,912 views 1 this week
no commentswrite comment
1 2 3 4 5
3 more votes to show rating
add to favorites
launch autoscroll
font size
0
reset
transpose
0
reset
simplify chords
display chords
guitar tuner
Autoscroll
slow
fast
+/-
esc
set tempo
stop
Help us to improve Ultimate-Guitar.com Take our survey!
×
Author
Difficulty
novice
    _____________________
   / Rufus Wainwright   /
  / Sanssouci          /
 / Release the Stars  /
/____________________/

 chords:
     D    B7   F    E    A   E7sus4   E7   A7   Dm6
e:---2----2----1----0----0-----0------0----0-----1----:
B:---3----0----1----0----2-----0------0----2-----0----:
G:---2----2----2----1----2-----2------1----0-----2----:
D:---0----1----3----2----2-----0------0----2-----0----:
A:--------2----3----2----0-----2------2----0----------:
E:-------------1----0----------0------0---------------:

(Since the song often stays in the same chord, I've chosen to use a
 symbol from the standard notation world, the "%", which just means
 that you're to play the same chord as the previous bar.)


 Intro:
| D | B7 | F  E |
| A | % | % | % |


 A-Verse:
| A | % | % | % |
| % | % | E7sus4 | E7 |
| E7sus4 | % | % | % |
| % | % | A | E7sus4 E7 |

 B-Verse:
| A | % | % | % |
| A7 | % | D | % |
| Dm6 | % | A | % |
| F | % | A | % |
| E7sus4 | E7 | A | % |


 A-Verse

 B-Verse


 Chorus:
| D | B7 | F E | A |
| D | B7 | F E | A | A |


 Classical Guitar Solo:
| A | % | % | % |
| % | % |

|-5-7--9--9-------|---7--5--7--5--4-|-4-----5-5-------|-------9\7--5.-4.-|
|-----------------|-----------------|-----------------|------------------|
|-6-7--9--9-------|---7--6--7--6--4-|-4-----6-6-------|-------9\7--6.-4.-|
|-----------------|-----------------|-----------------|------------------|
|-----------------|-----------------|-----------------|------------------|
|-----------------|-----------------|-----------------|------------------|

|-2-----0-----0---|-----------------|
|-----------------|---3-----2-------|
|-2-----2-----1---|-----------------|
|-----------------|---4-----2-------|
|-----------------|-----------------|
|-----------------|-----------------|



 A-Verse

 B-Verse:
The last 4 bars are replaced with these 8 bars:
| E7sus4 | % | % | % |
| E7 | % | % | % |


 Chorus:
| D | B7 | F  E | A |
| D | B7 | F  E | A |
| D | B7 | F  E | A...


Who will be at Sanssouci tonight?
The boys that made me lose the blues and then my eyesight
All together, playing games of cards
Gambling the tiny shards of brass, once my heart

Who will be at Sanssouci tonight?
I'm looking through the window from the garden
Waiting for the call in my hotel room
I'm tired of writing elegies to boredom
I just want to be at Sanssouci tonight

Who will be at Sanssouci tonight?
Surely not the one that loves me truly, only
He's probably down at the stables, there
Gently polishing my Cabriolet, only

I don't care, I really want to go
So I'm opening the door wide to the ballroom
Calling up some dude from my hotel room
I'm tired of writing elegies in general
I just want to be at Sanssouci tonight
Tonight, tonight

The candles seem to all have been blown out
Cupid's wings have cobweb rings and no one's about
Could it be I came to the wrong place?
But I swear I saw them climb the stairs, that sweet master race

Who will be at Sanssouci tonight?
It's only when you're outside that you notice
Only through the window you can see them
Once the door is open, all will vanish
Ain't nobody at Sanssouci tonight
Tonight, tonight



------------------------------------------------------------------------------
 6th /July /09
 Just mail me at Maitinin@gmail.com with questions, comments and corrections!
------------------------------------------------------------------------------


 " Maitinin writing here - the author of this tab.

   The past 11 years, I have generated 10,318,000 views and 815 top-rated tabs for this site.
   If you want to support an eager contributor like me, check out my own site:


   _____  http://www.PlayLikeTheGreats.com  _____


   Here I will continue to upload and improve my transcriptions.

   Best regards,
   Maitinin

   July, 2015 "
Suggest correction
Give kudos to tab author, rate the tab!
1 2 3 4 5
comments
print report bad tab
guest
You may want to rate the tab now too:
select rating
Wanna post a correction for this tab? Suggest correction