Oops, an error
Loading. Please wait.

Sometimes You Need Tab

1,604 views 1 this week
no commentswrite comment
1 2 3 4 5
3 more votes to show rating
add to favorites
launch autoscroll
font size
0
reset
how to read this tab
guitar tuner
Autoscroll
slow
fast
+/-
esc
set tempo
stop
Help us to improve Ultimate-Guitar.com Take our survey!
×
Author
Difficulty
novice
    ______________________
   / Rufus Wainwright    /
  / Sometimes You Need  /
 / Out of the Game     /
/_____________________/

These are the two guitar bits, which I've named A and B.
 A:
  D                 F#m/C#            Bm7               D/A
|-----------------|-----------------|-----------------|-----------------|
|-----------------|-----------------|-----------------|-----------------|
|-----2-------2---|-----2-------2---|-----2-------2---|-----2-------2---|
|---4---4---4---4-|---4---4---4---4-|---4---4---4---4-|---4---4---4---4-|
|-5-------5-------|-4-------4-------|-2-------2-------|-0-------0-------|
|-----------------|-----------------|-----------------|-----------------|

  D                 F#m/C#            Bm7
|-----------------|-----------------|-----------------|-----------------|
|-----------------|-----------------|-----------------|-----------------|
|-----2-------2---|-----2-------2---|-----2-------2---|-----2-------2---|
|---4---4---4---4-|---4---4---4---4-|---4---4---4---4-|---0---0---0---0-|
|-5-------5-------|-4-------4-------|-2-------2-------|-2-------2-------|
|-----------------|-----------------|-----------------|-----------------|

 B:
  Em/B              G/B               A7
|-----------------|-----------------|-----------------|-----------------|
|-----------------|-----------------|-----------------|-----------------|
|-----0-------0---|-----0-------0---|-----0-------0---|-----0-------0---|
|---2---2---2---2-|---0---0---0---0-|---2---2---2---2-|---2---2---2---2-|
|-2-------2-------|-2-------2-------|-0-------0-------|-0-------0-------|
|-----------------|-----------------|-----------------|-----------------|



Intro:      A  +  2x B



1st Verse:  A  +  4x B

"Sometimes you need a stranger to talk to
 Sometimes you need to go to the observatory
 Sometimes a movie star's eye
 Gets you through the love and the lies"



2nd Verse: Similar to 1st Verse

"Sometimes you need a stranger to walk with
 Sometimes you need to go to the dark park
 Sometimes a movie star's spark
 Gets you through the dark
 Sometimes a movie star's bar
 Paints your heart the pitch of the love"



3rd Verse:  A  +  4x B  +  2 more bars of A7

"I'm so tired of running out of cities
 Guess that you too, guess which one this is
 Sometimes a movie star's eyes
 Gets you through the love and the lies
 Sometimes a movie star's kiss
 Let's get lost in Los Angeles"



4th Verse: Similar to 3rd Verse
(instrumental)



Outro:
"Sometimes you need a stranger to talk to"

  D                 F#m/C#            Bm7               D
|-----------------|-----------------|-----------------|-2^--------------|
|-----------------|-----------------|-----------------|-3^--------------|
|-2^--------------|-2^--------------|-2^--------------|-2^--------------|
|-4^--------------|-4^--------------|-4^--------------|-0^--------------|
|-5^--------------|-4^--------------|-2^--------------|-----------------|
|-----------------|-----------------|-----------------|-----------------|




------------------------------------------------------------------------------
 5th /August /12
 Just mail me at Maitinin@gmail.com with questions, comments and corrections!
------------------------------------------------------------------------------



 " The past 11 years, I have generated +11 million views and +800 top-rated tabs for this site.
   If you want to support a contributor like me, check out the updated tab on my own site:


      www.playlikethegreats.com/guitartabs/sometimes-you-need-by-rufus-wainwright


   Musical regards,
   Maitinin
   April, 2016 "
Suggest correction
Give kudos to tab author, rate the tab!
1 2 3 4 5
comments
print report bad tab
guest
You may want to rate the tab now too:
select rating
Wanna post a correction for this tab? Suggest correction