Oops, an error
Loading. Please wait.

Nativa Acoustic tab

31 views 1 this week
no commentswrite comment
1 2 3 4 5
3 more votes to show rating
add to favorites
×
Save as Personal and add changes to this tab that will be seen only by you. Learn more ›
×
You can save this tab as Personal to edit and correct it or add notes. All changes will be seen only by you. Learn more »
launch autoscroll
font size
0
reset
how to read this tab
guitar tuner
edit
Autoscroll
slow
fast
+/-
esc
set tempo
stop
Author
Difficulty
About this tab version
Full song based on acoustic performance (www.youtube.com/watch?v=bZ-_-VPjaEc). Was this info helpful? Yes No
Youtube link: https://www.youtube.com/watch?v=bZ-_-VPjaEc

[Intro]
e|-----------0---------------0-----------|
B|-------0-----0----2----0-----2---------|
G|-----1---------1--2------------2--(x4)-|
D|---2-----------------------------------|
A|-0-------0--------0--0---0-------------|
E|---------------------------------------|

[Verse 1]
Sorriste-me   junto ao rio         Quando de febre    eu morria
e|--------------0---------------0-----|--------------0---------------0----------|
B|----------0-----0----2----0-----2---|----------0-----0----2----0-----2--------|
G|--------1---------1--2------------2-|--------1---------1--2------------2------|
D|------2-----------------------------|------2----------------------------------|
A|----0-------0--------0--0---0-------|----0-------0--------0--0---0------------|
E|------------------------------------|-----------------------------------------|

Entre delírios      palustres             E suores me    consumia
e|----------------0-----4-------0-----------|-----------0-----4-------0---------|
B|------------0-----0---------------0-------|-------0-----0---------------0-----|
G|----------2---------2---------------2-----|-----2---------2---------------2---|
D|--------2-----------------------------2---|---2-----------------------------2-|
A|------------------------------------------|-----------------------------------|
E|------2-------2-------2-----2---2---------|-2-------2-------2-----2---2-------|

Eu ardia  em   fogo  lento       Quando me  deste     agasalho    Passaste em mim um unguento                
e|-------------5----------------2-----|-----------5----------------2-----|-----------5----------------2-----|
B|-------7p5-----5----------3-----3---|-----7p5-----5----------3-----3---|-----7p5-----5----------3-----3---|
G|-----------------6------2---------2-|---------------6------2---------2-|---------------6------2---------2-|
D|-----7----------------4-------------|---7----------------4-------------|---7----------------4-------------|
A|---5-------5--------2-------2-------|-5-------5--------2-------2-------|-5-------5--------2-------2-------|
E|------------------------------------|----------------------------------|----------------------------------|

Muito mais              fresco do que orvalho
e|--------------0-------------0-|--------------0---------------0-----|--------------0---------------0-----|
B|----------------0-------------|----------0-----0----2----0-----2---|----------0-----0----2----0-----2---|
G|----------2-------2--1--------|--------1---------1--2------------2-|--------1---------1--2------------2-|
D|--------0---------------------|------2-----------------------------|------2-----------------------------|
A|------2------------------2----|----0-------0--------0--0---0-------|----0-------0--------0--0---0-------|
E|----0-------0--------0--------|------------------------------------|------------------------------------|

[Verse 2]
  Redimiste-me       nativa          As penas do meu     degredo
e|--------------0---------------0-----|--------------0---------------0----------|
B|----------0-----0----2----0-----2---|----------0-----0----2----0-----2--------|
G|--------1---------1--2------------2-|--------1---------1--2------------2------|
D|------2-----------------------------|------2----------------------------------|
A|----0-------0--------0--0---0-------|----0-------0--------0--0---0------------|
E|------------------------------------|-----------------------------------------|

   Mantiveste a minha   alma   viva    Por ti voltei a ser   ledo
e|----------------0-----4-------0-----------|-----------0-----4-------0---------|
B|------------0-----0---------------0-------|-------0-----0---------------0-----|
G|----------2---------2---------------2-----|-----2---------2---------------2---|
D|--------2-----------------------------2---|---2-----------------------------2-|
A|------------------------------------------|-----------------------------------|
E|------2-------2-------2-----2---2---------|-2-------2-------2-----2---2-------|

  Adorei Deus em  heresia    Dei-lhe outra    face     sagrada      E à nossa volta     no chão      
e|-------------5----------------2-----|-----------5----------------2-----|-----------5----------------2-----|
B|-------7p5-----5----------3-----3---|-----7p5-----5----------3-----3---|-----7p5-----5----------3-----3---|
G|-----------------6------2---------2-|---------------6------2---------2-|---------------6------2---------2-|
D|-----7----------------4-------------|---7----------------4-------------|---7----------------4-------------|
A|---5-------5--------2-------2-------|-5-------5--------2-------2-------|-5-------5--------2-------2-------|
E|------------------------------------|----------------------------------|----------------------------------|

Foi crescendo       uma erva mestiçada
e|----------------0-------------0-|--------------0---------------0-----|--------------0---------------0-----|
B|------------------0-------------|----------0-----0----2----0-----2---|----------0-----0----2----0-----2---|
G|------------2-------2--1--------|--------1---------1--2------------2-|--------1---------1--2------------2-|
D|----------0---------------------|------2-----------------------------|------2-----------------------------|
A|--------2------------------2----|----0-------0--------0--0---0-------|----0-------0--------0--0---0-------|
E|------0-------0--------0--------|------------------------------------|------------------------------------|

[Chorus1]
             Deste-me conchas     do mar  
e|-----------5-----------------5----|------------0---------------0-----|
B|-------6-----6----------6-----6---|-------0-----0----2----0-----2----|
G|-----5---------5------5---------5-|-----1---------1--2------------2--|
D|---7----------------7-------------|---2------------------------------|
A|-5-------5--------5-------5-------|-0-------0--------0--0---0--------|
E|----------------------------------|----------------------------------|

   E um    sorriso      na           boca
e|-----------5-----------------5----|------------0---------------0-----|
B|-------6-----6----------6-----6---|-------0-----0----2----0-----2----|
G|-----5---------5------5---------5-|-----1---------1--2------------2--|
D|---7----------------7-------------|---2------------------------------|
A|-5-------5--------5-------5-------|-0-------0--------0--0---0--------|
E|----------------------------------|----------------------------------|

              E eu nada tinha pra   dar                            
e|-----------4-----6-----4---------|-----------2---5---2-------------|
B|-------5-----5-----5-------5-----|-------3---3---3---3---5---3-----|
G|-----4---------4-----4-------4---|-----2-----------------2---2-2---|
D|---6---------------------------6-|---4---------------------------4-|
A|-4-------4-------4-------4-------|-2-------2---2---2---2---2-------|
E|---------------------------------|---------------------------------|

  Que     se        com-    parasse     em troca
e|-----------4-----------0---------0---|--------------0---------------0-----------|
B|-------5-----5--------0---------0----|----------0-----0----2----0-----2---------|
G|-----4---------4-----2---------1-----|--------1---------1--2------------2--(x2)-|
D|---6----------------0---------0------|------2-----------------------------------|
A|-4-------4---------2---------2-------|----0-------0--------0--0---0-------------|
E|------------------0------0--0--------|------------------------------------------|

[Verse 3]
Dei-te os ferros     da razão        Dei-te o valor       do metal
e|------------------0---------------0-----|--------------0---------------0----------|
B|--------------0-----0----2----0-----2---|----------0-----0----2----0-----2--------|
G|------------1---------1--2------------2-|--------1---------1--2------------2------|
D|----------2-----------------------------|------2----------------------------------|
A|--------0-------0--------0--0---0-------|----0-------0--------0--0---0------------|
E|----------------------------------------|-----------------------------------------|

  O castigo e o     perdão             E a gramática      do mal         
e|----------------0-----4-------0-----------|-----------0-----4-------0---------|
B|------------0-----0---------------0-------|-------0-----0---------------0-----|
G|----------2---------2---------------2-----|-----2---------2---------------2---|
D|--------2-----------------------------2---|---2-----------------------------2-|
A|------------------------------------------|-----------------------------------|
E|------2-------2-------2-----2---2---------|-2-------2-------2-----2---2-------|

Dei-te a dor     no crucifixo     Dei-te a cinza     do prazer       Se não fosse eu    era outro    
e|----------------5----------------2-----|----------5----------------2-----|----------5----------------2-----|
B|-----------7p5----5----------3-----3---|-----7p5----5----------3-----3---|-----7p5----5----------3-----3---|
G|--------------------6------2---------2-|--------------6------2---------2-|--------------6------2---------2-|
D|---------7---------------4-------------|---7---------------4-------------|---7---------------4-------------|
A|-------5-------5-------2-------2-------|-5-------5-------2-------2-------|-5-------5-------2-------2-------|
E|---------------------------------------|---------------------------------|---------------------------------|

E antes eu                do que um qualquer
e|----------------0-------------0-|--------------0---------------0-----|--------------0---------------0-----|
B|------------------0-------------|----------0-----0----2----0-----2---|----------0-----0----2----0-----2---|
G|------------2-------2--1--------|--------1---------1--2------------2-|--------1---------1--2------------2-|
D|----------0---------------------|------2-----------------------------|------2-----------------------------|
A|--------2------------------2----|----0-------0--------0--0---0-------|----0-------0--------0--0---0-------|
E|------0-------0--------0--------|------------------------------------|------------------------------------|

[Chorus2]
            Dei-te a minha   língua   mãe
e|-----------5-----------------5----|------------0---------------0-----|
B|-------6-----6----------6-----6---|-------0-----0----2----0-----2----|
G|-----5---------5------5---------5-|-----1---------1--2------------2--|
D|---7----------------7-------------|---2------------------------------|
A|-5-------5--------5-------5-------|-0-------0--------0--0---0--------|
E|----------------------------------|----------------------------------|

  Nas      tardes     desse         vagar
e|-----------5-----------------5----|------------0---------------0-----|
B|-------6-----6----------6-----6---|-------0-----0----2----0-----2----|
G|-----5---------5------5---------5-|-----1---------1--2------------2--|
D|---7----------------7-------------|---2------------------------------|
A|-5-------5--------5-------5-------|-0-------0--------0--0---0--------|
E|----------------------------------|----------------------------------|

             O meu bem     mais precioso                                 
e|-----------4-----6-----4---------|-----------2---5---2-------------|
B|-------5-----5-----5-------5-----|-------3---3---3---3---5---3-----|
G|-----4---------4-----4-------4---|-----2-----------------2---2-2---|
D|---6---------------------------6-|---4---------------------------4-|
A|-4-------4-------4-------4-------|-2-------2---2---2---2---2-------|
E|---------------------------------|---------------------------------|

             Que eu tinha     pra    te    dar
e|-----------4-----------0---------0---|--------------0---------------0-----------|
B|-------5-----5--------0---------0----|----------0-----0----2----0-----2---------|
G|-----4---------4-----2---------1-----|--------1---------1--2------------2--(x2)-|
D|---6----------------0---------0------|------2-----------------------------------|
A|-4-------4---------2---------2-------|----0-------0--------0--0---0-------------|
E|------------------0------0--0--------|------------------------------------------|

[Chorus3]
             E esse meu   falar     antigo
e|-----------5-----------------5----|------------0---------------0-----|
B|-------6-----6----------6-----6---|-------0-----0----2----0-----2----|
G|-----5---------5------5---------5-|-----1---------1--2------------2--|
D|---7----------------7-------------|---2------------------------------|
A|-5-------5--------5-------5-------|-0-------0--------0--0---0--------|
E|----------------------------------|----------------------------------|

   De        branco      fez-se    mulato
e|-----------5-----------------5----|------------0---------------0-----|
B|-------6-----6----------6-----6---|-------0-----0----2----0-----2----|
G|-----5---------5------5---------5-|-----1---------1--2------------2--|
D|---7----------------7-------------|---2------------------------------|
A|-5-------5--------5-------5-------|-0-------0--------0--0---0--------|
E|----------------------------------|----------------------------------|

            Um       dialecto    criolo                             
e|-----------4-----6-----4---------|-----------2---5---2-------------|
B|-------5-----5-----5-------5-----|-------3---3---3---3---5---3-----|
G|-----4---------4-----4-------4---|-----2-----------------2---2-2---|
D|---6---------------------------6-|---4---------------------------4-|
A|-4-------4-------4-------4-------|-2-------2---2---2---2---2-------|
E|---------------------------------|---------------------------------|

               Um viço      novo         no mato       
e|-----------4-----------0---------0---|--------------0---------------0-----------|
B|-------5-----5--------0---------0----|----------0-----0----2----0-----2---------|
G|-----4---------4-----2---------1-----|--------1---------1--2------------2--(x2)-|
D|---6----------------0---------0------|------2-----------------------------------|
A|-4-------4---------2---------2-------|----0-------0--------0--0---0-------------|
E|------------------0------0--0--------|------------------------------------------|

[Outro]
e|-----------0-----4-------0---------------|-----------5----------------2------------|
B|-------0-----0---------------0-----------|-----7p5-----5----------3-----3----------|
G|-----2---------2---------------2----(x2)-|---------------6------2---------2---(x3)-|
D|---2-----------------------------2-------|---7----------------4--------------------|
A|-----------------------------------------|-5-------5--------2-------2--------------|
E|-2-------2-------2-----2---2-------------|-----------------------------------------|
 
e|-----------0---------------0-----------|
B|-------0-----0----2----0-----2---------|
G|-----1---------1--2------------2--(x4)-|
D|---2-----------------------------------|
A|-0-------0--------0--0---0-------------|
E|---------------------------------------|


************************************

| p  Pull-off

************************************

            
            
Suggest correction
Creating personal tab
Creating personal tab
You can edit any tab online and save it as your Personal.

You can edit, replace or remove any tab part or add personal notes – all changes will be seen only by you.

Personal tabs can be accessed anytime from any device, even offline.
Learn more »
Give kudos to tab author, rate the tab!
1 2 3 4 5
comments
print report bad tab
guest
You may want to rate the tab now too:
select rating
Wanna post a correction for this tab? Suggest correction