Oops, an error
Loading. Please wait.

Christmas In Hollis Bass Tab

1,806 views 3 this week
no commentswrite comment
1 2 3 4 5
please rate
add to favorites
launch autoscroll
font size
0
reset
guitar tuner
Tab Pro tools
  • play this tab
  • loop segment
  • change instrument
  • show fretboard
  • metronome
Autoscroll
slow
fast
+/-
esc
set tempo
stop
Difficulty
intermediate
Christmas In Hollis
Run DMC
Brenly Drake

-------------------------

Also culled from some obscure tabs and reworked a bit, i didn't want to repost anyone's 
without their permission and no other names were given, so credit to those tabs cannot 
easily given, sorry.
This is a rough approximation that will be more than passable for any performance you 
Trust.

-------------------------


"Jingle Bells" intro

Probably add some upper octave notes if you've got a keyboard handy, this is just for 
rough idea and tabbed on guitars.


E  |-----------------|-----------------|-----------------|-----------------|
B  |-----------------|-----------------|-----------------|-----------------|
G  |-----------------|-----------------|-----4-----------|-----------------|
D  |-6-*-6-*-6-------|-6-*-6-*-6-------|-6-------2---4---|-6---------------|
A  |-----------------|-----------------|-----2-----------|-----------------|
E  |-4-*-4-*-4-------|-4-*-4-*-4-------|-4-------0---2---|-4---------------|
     Ab                Ab                Ab  B   E   F#    Ab

------------------------


Main verse bass riff

plays off of Bb mostly
first "3" (G) is a slide leading out of the horn intro

G  |------|------------*---|----------------|----------------|----------------|
D  |------|--------8-----6-|8---4---6-4-----|*---------------|----------------|
A  |------|----*-----------|--------------6-|----------------|----------------|
E  |--3/--|6---------------|----------------|------6-4---5---|6---*-0-----3---|


G  |-------------*---|--4-------------|----------------|----------------|
D  |---------8-----6-|8---4---6-4-----|*---------------|----------------|
A  |-----*-----------|--------------6-|----------------|----------------|
E  |-6---------------|----------------|--------3---6---|0-----2-----3/--|

last "3" (G) is slid into the next "6" (Bb) for a repeat.


-------------------------


Verse horn riff done here and there.

E  |-6---------------|----------------|
B  |-----------------|----7-*-9-7-*-4-|
G  |-3---------------|----------------|
D  |-----------------|----4-*-6-4-*-1-|
A  |-----------------|----------------|
E  |-----------------|----------------|


--------------------------

Trust. TRUST.
comments
We did not receive enough feedback on this tab! Please rate:
print report bad tab
1 2 3 4 5
I want to post or [tab]
guest
You may want to rate the tab now too:
select rating
Please do not post tabs as comments. Select "correction" instead!