Oops, an error
Loading. Please wait.

Rock Box Tab

version 1
version 1

Whole song

Interactive

11,280 views 12 this week
no commentswrite comment
1 2 3 4 5
excellent!
x 8
add to favorites
launch autoscroll
font size
0
reset
how to read this tab
guitar tuner
Tab Pro tools
  • play this tab
  • loop segment
  • change instrument
  • show fretboard
  • metronome
×
Best way to learn
"Rock Box"
Autoscroll
slow
fast
+/-
esc
set tempo
stop
This is my first tab, so please do be too much of a critic.
This is also a very complicated song. So pratice it a lot.

Run Dmc
Rock Box

Use distortion
Wait for them to say "Run, Run" then...

e|-----------------|
B|-----------------|
G|---2--4--5-------|
D|---2--4--5--5--3-|
A|---0--2--3--5--3-|
E|------------3--1-|

Start when the solo begins

---------------------------------------------------------------------------              
                      |                                     |
        Rhythem Guitar               |    Lead Guitar (Only 2 Solos Known) |
                                     |                                     |
e|------------------------------|    |    |-12----------------------------||
B|------------------------------|    |    |-----------15--15------13------||
G|--------------2----2--4--5----|    |    |-------------------------------||
D|-3----5--5----2----2--4--5--5-|    |    |-------------------------------||
A|-3----5--5----0----0--2--3--5-|    |    |-------------------------------||
E|-1----3--3------------------3-|    |    |-------------------------------||
                                     |                                     |
e|------------------------------|    |    |-15----------------------------||
B|------------------------------|    |    |-----------16--16------14------||
G|--------------2----2--4--5----|    |    |-------------------------------||
D|-3----5--5----2----2--4--5--5-|    |    |-------------------------------||
A|-3----5--5----0----0--2--3--5-|    |    |-------------------------------||
E|-1----3--3------------------3-|    |    |-------------------------------||
                                     |                                     |
e|------------------------------|    |    |-------------------------------||
B|------------------------------|    |    |--5---5--5--5--5-5-5555--7-3*--||
G|--------------2----2--4--5----|    |    |-------------------------------||
D|-3----5--5----2----2--4--5--5-|    |    |-------------------------------||
A|-3----5--5----0----0--2--3--5-|    |    |-------------------------------||
E|-1----3--3------------------3-|    |    |-------------------------------||
                                     |                                     |
e|------------------------------|    |    |------0--1--2--3--5--5/12--12\0||
B|------------------------------|    |    |-1--3--------------------------||
G|--------------2----2--4--5----|    |    |-------------------------------||
D|-3----5--5----2----2--4--5--5-|    |    |-------------------------------||
A|-3----5--5----0----0--2--3--5-|    |    |-------------------------------||
E|-1----3--3------------------3-|    |    |-------------------------------||
                                     |                                     |
e|------------------------------|    |                                     |
B|------------------------------|    |                                     |
G|--------------2----2--4--5----|    |                                     |
D|-3----5--5----2----2--4--5--5-|    |                                     |
A|-3----5--5----0----0--2--3--5-|    |                                     |
E|-1----3--3------------------3-|    |                                     |
                                     |                                     |
e|------------------------------|    |                                     |
B|------------------------------|    |                                     |
G|--------------2----2--4--5----|    |                                     |
D|-3----5--5----2----2--4--5--5-|    |                                     |
A|-3----5--5----0----0--2--3--5-|    |                                     |
E|-1----3--3------------------3-|    |                                     |
                                     |                                     |
e|------------------------------|    |                                     |
B|------------------------------|    |                                     |
G|--------------2----2--4--5----|    |                                     |
D|-3----5--5----2----2--4--5--5-|    |                                     |
A|-3----5--5----0----0--2--3--5-|    |                                     |
E|-1----3--3------------------3-|    |                                     |
                                     |                                     |
e|------------------------------|    |    |-13-13-12-13-13-----15---15\9--||
B|------------------------------|    |    |-------------------------------||
G|--------------2----2--4--5----|    |    |-------------------------------||
D|-3----5--5----2----2--4--5--5-|    |    |-------------------------------||
A|-3----5--5----0----0--2--3--5-|    |    |-------------------------------||
E|-1----3--3------------------3-|    |    |-------------------------------||
                                     |                                     |
e|------------------------------|    |    |-9\5~~~~~~~~~~~----------------||
B|------------------------------|    |    |-------------------------------||
G|--------------2----2--4--5----|    |    |-------------------------------||
D|-3----5--5----2----2--4--5--5-|    |    |-------------------------------||
A|-3----5--5----0----0--2--3--5-|    |    |-------------------------------||
E|-1----3--3------------------3-|    |    |-------------------------------||
                                     |                                     |
e|------------------------------|    |---------------------------------------|
B|---------------------------------------------------------------------------|
G|--------------2----2--4--5-------------------------------------------------|
D|-3----5--5----2----2--4--5--5----------------------------------------------|
A|-3----5--5----0----0--2--3--5----------------------------------------------|
E|-1----3--3------------------3----------------------------------------------|

e|------------------------------|
B|------------------------------|
G|--------------2----2--4--5----|
D|-3----5--5----2----2--4--5--5-|
A|-3----5--5----0----0--2--3--5-|
E|-1----3--3------------------3-|

e|------------------------------|
B|------------------------------|
G|--------------2----2--4--5----|
D|-3----5--5----2----2--4--5--5-|
A|-3----5--5----0----0--2--3--5-|
E|-1----3--3------------------3-|

e|------------------------------|
B|------------------------------|
G|-------------------2--4--5----|
D|-3-----------------2--4--5--5-|
A|-3-----------------0--2--3--5-|
E|-1--------------------------3-|

e|------------------------------|
B|------------------------------|
G|-------------------2--4--5----|
D|-3-----------------2--4--5--5-|
A|-3-----------------0--2--3--5-|
E|-1--------------------------3-|


e|------------------------------|
B|------------------------------|
G|-------------------2--4--5----|
D|-3-----------------2--4--5--5-|
A|-3-----------------0--2--3--5-|
E|-1--------------------------3-|

e|------------------------------|
B|------------------------------|
G|-------------------2--4--5----|
D|-3-----------------2--4--5--5-|
A|-3-----------------0--2--3--5-|
E|-1--------------------------3-|

e|------------------------------|
B|------------------------------|
G|------------------------------|
D|------------------------------|
A|------------------------------|
E|------------------------------|

e|------------------------------|
B|------------------------------|
G|------------------------------|
D|------------------------------|
A|------------------------------|
E|------------------------------|

e|------------------------------|
B|------------------------------|
G|--------------2----2--4--5----|
D|-3----5--5----2----2--4--5--5-|
A|-3----5--5----0----0--2--3--5-|
E|-1----3--3------------------3-|

e|------------------------------|
B|------------------------------|
G|--------------2----2--4--5----|
D|-3----5--5----2----2--4--5--5-|
A|-3----5--5----0----0--2--3--5-|
E|-1----3--3------------------3-|

e|------------------------------|
B|------------------------------|
G|--------------2----2--4--5----|
D|-3----5--5----2----2--4--5--5-|
A|-3----5--5----0----0--2--3--5-|
E|-1----3--3------------------3-|

e|------------------------------|
B|------------------------------|
G|--------------2----2--4--5----|
D|-3----5--5----2----2--4--5--5-|
A|-3----5--5----0----0--2--3--5-|
E|-1----3--3------------------3-|

e|------------------------------|
B|------------------------------|
G|--------------2----2--4--5----|
D|-3----5--5----2----2--4--5--5-|
A|-3----5--5----0----0--2--3--5-|
E|-1----3--3------------------3-|

e|------------------------------|
B|------------------------------|
G|--------------2----2--4--5----|
D|-3----5--5----2----2--4--5--5-|
A|-3----5--5----0----0--2--3--5-|
E|-1----3--3------------------3-|

e|------------------------------|
B|------------------------------|
G|--------------2----2--4--5----|
D|-3----5--5----2----2--4--5--5-|
A|-3----5--5----0----0--2--3--5-|
E|-1----3--3------------------3-|

e|------------------------------|
B|------------------------------|
G|--------------2----2--4--5----|
D|-3----5--5----2----2--4--5--5-|
A|-3----5--5----0----0--2--3--5-|
E|-1----3--3------------------3-|

e|------------------------------|
B|------------------------------|
G|--------------2----2--4--5----|
D|-3----5--5----2----2--4--5--5-|
A|-3----5--5----0----0--2--3--5-|
E|-1----3--3------------------3-|

e|------------------------------|
B|------------------------------|
G|--------------2----2--4--5----|
D|-3----5--5----2----2--4--5--5-|
A|-3----5--5----0----0--2--3--5-|
E|-1----3--3------------------3-|

e|------------------------------|
B|------------------------------|
G|--------------2----2--4--5----|
D|-3----5--5----2----2--4--5--5-|
A|-3----5--5----0----0--2--3--5-|
E|-1----3--3------------------3-|

e|------------------------------|
B|------------------------------|
G|--------------2----2--4--5----|
D|-3----5--5----2----2--4--5--5-|
A|-3----5--5----0----0--2--3--5-|
E|-1----3--3------------------3-|

e|------------------------------|
B|------------------------------|
G|--------------2----2--4--5----|
D|-3----5--5----2----2--4--5--5-|
A|-3----5--5----0----0--2--3--5-|
E|-1----3--3------------------3-|

e|------------------------------|
B|------------------------------|
G|--------------2----2--4--5----|
D|-3----5--5----2----2--4--5--5-|
A|-3----5--5----0----0--2--3--5-|
E|-1----3--3------------------3-|

e|------------------------------|
B|------------------------------|
G|--------------2----2--4--5----|
D|-3----5--5----2----2--4--5--5-|
A|-3----5--5----0----0--2--3--5-|
E|-1----3--3------------------3-|

e|------------------------------|
B|------------------------------|
G|--------------2----2--4--5----|
D|-3----5--5----2----2--4--5--5-|
A|-3----5--5----0----0--2--3--5-|
E|-1----3--3------------------3-|

e|------------------------------|
B|------------------------------|
G|--------------2----2--4--5----|
D|-3----5--5----2----2--4--5--5-|
A|-3----5--5----0----0--2--3--5-|
E|-1----3--3------------------3-|

e|------------------------------|
B|------------------------------|
G|------------------------------|
D|------------------------------|
A|------------------------------|
E|------------------------------|

e|------------------------------|
B|------------------------------|
G|------------------------------|
D|------------------------------|
A|------------------------------|
E|------------------------------|

e|------------------------------|
B|------------------------------|
G|------------------------------|
D|------------------------------|
A|------------------------------|
E|------------------------------|

e|------------------------------|
B|------------------------------|
G|-------------------2--4--5----|
D|-3-----------------2--4--5--5-|
A|-3-----------------0--2--3--5-|
E|-1--------------------------3-|

e|------------------------------|
B|------------------------------|
G|-------------------2--4--5----|
D|-3-----------------2--4--5--5-|
A|-3-----------------0--2--3--5-|
E|-1--------------------------3-|

e|------------------------------|
B|------------------------------|
G|-------------------2--4--5----|
D|-3-----------------2--4--5--5-|
A|-3-----------------0--2--3--5-|
E|-1--------------------------3-|

e|------------------------------|
B|------------------------------|
G|-------------------2--4--5----|
D|-3-----------------2--4--5--5-|
A|-3-----------------0--2--3--5-|
E|-1--------------------------3-|

e|------------------------------|
B|------------------------------|
G|--------------2----2--4--5----|
D|-3----5--5----2----2--4--5--5-|
A|-3----5--5----0----0--2--3--5-|
E|-1----3--3------------------3-|

e|------------------------------|
B|------------------------------|
G|-------------------2--4--5----|
D|-3-----------------2--4--5--5-|
A|-3-----------------0--2--3--5-|
E|-1--------------------------3-|

e|------------------------------|
B|------------------------------|
G|-------------------2--4--5----|
D|-3-----------------2--4--5--5-|
A|-3-----------------0--2--3--5-|
E|-1--------------------------3-|

e|------------------------------|
B|------------------------------|
G|-------------------2--4--5----|
D|-3-----------------2--4--5--5-|
A|-3-----------------0--2--3--5-|
E|-1--------------------------3-|

e|------------------------------|
B|------------------------------|
G|-------------------2--4--5----|
D|-3-----------------2--4--5--5-|
A|-3-----------------0--2--3--5-|
E|-1--------------------------3-|

e|------------------------------|
B|------------------------------|
G|--------------2----2--4--5----|
D|-3----5--5----2----2--4--5--5-|
A|-3----5--5----0----0--2--3--5-|
E|-1----3--3------------------3-|

e|------------------------------|
B|------------------------------|
G|--------------2----2--4--5----|
D|-3----5--5----2----2--4--5--5-|
A|-3----5--5----0----0--2--3--5-|
E|-1----3--3------------------3-|

e|------------------------------|
B|------------------------------|
G|--------------2----2--4--5----|
D|-3----5--5----2----2--4--5--5-|
A|-3----5--5----0----0--2--3--5-|
E|-1----3--3------------------3-|

e|------------------------------|
B|------------------------------|
G|--------------2----2--4--5----|
D|-3----5--5----2----2--4--5--5-|
A|-3----5--5----0----0--2--3--5-|
E|-1----3--3------------------3-|

e|------------------------------|
B|------------------------------|
G|--------------2----2--4--5----|
D|-3----5--5----2----2--4--5--5-|
A|-3----5--5----0----0--2--3--5-|
E|-1----3--3------------------3-|

e|------------------------------|
B|------------------------------|
G|--------------2----2--4--5----|
D|-3----5--5----2----2--4--5--5-|
A|-3----5--5----0----0--2--3--5-|
E|-1----3--3------------------3-|

e|------------------------------|
B|------------------------------|
G|-------------------2--4--5----|
D|-3-----------------2--4--5--5-|
A|-3-----------------0--2--3--5-|
E|-1--------------------------3-|

e|------------------------------|
B|------------------------------|
G|-------------------2--4--5----|
D|-3-----------------2--4--5--5-|
A|-3-----------------0--2--3--5-|
E|-1--------------------------3-|

e|------------------------------|
B|------------------------------|
G|--------------2----2--4--5----|
D|-3----5--5----2----2--4--5--5-|
A|-3----5--5----0----0--2--3--5-|
E|-1----3--3------------------3-|

e|------------------------------|
B|------------------------------|
G|--------------2----2--4--5----|
D|-3----5--5----2----2--4--5--5-|
A|-3----5--5----0----0--2--3--5-|
E|-1----3--3------------------3-|

e|------------------------------|
B|------------------------------|
G|--------------2----2--4--5----|
D|-3----5--5----2----2--4--5--5-|
A|-3----5--5----0----0--2--3--5-|
E|-1----3--3------------------3-|

e|------------------------------|
B|------------------------------|
G|--------------2----2--4--5----|
D|-3----5--5----2----2--4--5--5-|
A|-3----5--5----0----0--2--3--5-|
E|-1----3--3------------------3-|

e|------------------------------|
B|------------------------------|
G|-------------------2--4--5----|
D|-3-----------------2--4--5--5-|
A|-3-----------------0--2--3--5-|
E|-1--------------------------3-|

e|------------------------------|
B|------------------------------|
G|-------------------2--4--5----|
D|-3-----------------2--4--5--5-|
A|-3-----------------0--2--3--5-|
E|-1--------------------------3-|

e|------------------------------|
B|------------------------------|
G|-------------------2--4--5----|
D|-3-----------------2--4--5--5-|
A|-3-----------------0--2--3--5-|
E|-1--------------------------3-|

e|------------------------------|
B|------------------------------|
G|-------------------2--4--5----|
D|-3-----------------2--4--5--5-|
A|-3-----------------0--2--3--5-|
E|-1--------------------------3-|

e|------------------------------|
B|------------------------------|
G|-------------------2--4--5----|
D|-3-----------------2--4--5--5-|
A|-3-----------------0--2--3--5-|
E|-1--------------------------3-|

e|------------------------------|
B|------------------------------|
G|-------------------2--4--5----|
D|-3-----------------2--4--5--5-|
A|-3-----------------0--2--3--5-|
E|-1--------------------------3-|

e|------------------------------|
B|------------------------------|
G|-------------------2--4--5----|
D|-3-----------------2--4--5--5-|
A|-3-----------------0--2--3--5-|
E|-1--------------------------3-|

Then the music has faded away.
comments
print report bad tab
I want to post or [tab]
guest
You may want to rate the tab now too:
select rating
Please do not post tabs as comments. Select "correction" instead!