Oops, an error
Loading. Please wait.

The Kings Bass Tab

version 2
version 2

Whole song

292 views 1 this week
no commentswrite comment
1 2 3 4 5
please rate
add to favorites
launch autoscroll
font size
0
reset
guitar tuner
Tab Pro tools
  • play this tab
  • loop segment
  • change instrument
  • show fretboard
  • metronome
×
Best way to learn
"The Kings"
Autoscroll
slow
fast
+/-
esc
set tempo
stop
Contributor
Difficulty
Tuning
novice
E A D G B E
Hey! if u all like DgenerationX, well then heres tha song!


G|----------------------------------------|
D|------0------0-2222------0--------------|
A|-------------------------------2-3-3-2--|    Repeat x3
E|--0-0----0-0---------0-0---0-0----------|

G|-------------------------|
D|-------------------------|
A|-------7-5-7-------------|     Repeat x4
E|--0-0---------7--8--3--5-|

G|-------------------------------------------|
D|-------------------------------------------|
A|-------------------------------------------|       then from tha top again
E|--0-0---------0-0---------0-0---------0-0--|
comments
We did not receive enough feedback on this tab! Please rate:
print report bad tab
1 2 3 4 5
I want to post or [tab]
guest
You may want to rate the tab now too:
select rating
Please do not post tabs as comments. Select "correction" instead!