Oops, an error
Loading. Please wait.

Ill Forever Sing Bass Tab

377 views 1 this week
no commentswrite comment
1 2 3 4 5
please rate
add to favorites
launch autoscroll
font size
0
reset
guitar tuner
Autoscroll
slow
fast
+/-
esc
set tempo
stop
Help us to improve Ultimate-Guitar.com Take our survey!
×
Contributor
This Kid 291
Intro
G |-----------------------------------------------    G |-----------|
D |22222222----------22222222---------------------    D |-----------|
A |---------00000000----------4444-2222-0~------0~ x2 A |0~------0~-|
E |-----------------------------------------------    E |-----------|

Verse
G |----------------------------------------------------------------|
D |2~-----------2~--------------------2~------------------2~-------|
A |--------4~--------00-000-000-22222------2~---4~---0~--------2~--|
E |----------------------------------------------------------------|

G |--------------------|
D |--------------------|
A |000-0000---000-0000-|
E |--------------------|


Pre Chorus
G |------------------    G |---------|
D |------------------    D |---------|
A |22-244-400-0-0-0-0 x3 A |22222222-|
E |------------------    E |---------|

Chorus  (These are 1's not 11's)
G |-----------------------------------------------------------6666644~-|
D |22222222---------------------------22222222----------221122---------|
A |---------22222222-0000000000000000----------22222222----------------|
E |--------------------------------------------------------------------|

G |-------------------------------------------------------------|
D |22222222---------------------------22222222------------------|
A |---------22222222-0000000000000000----------22222222-000402~-|
E |-------------------------------------------------------------|

Verse

Pre Chorus

Chorus2
G |-----------------------------------------------------------6666644~-|
D |22222222---------------------------22222222----------221122---------|
A |---------22222222-0000000000000000----------22222222----------------|
E |--------------------------------------------------------------------|

G |---------------------------------------------------------------------|
D |22222222---------------------------22222222--------------------------|
A |---------22222222-0000000000000000----------22222222-00000000000004~-|
E |---------------------------------------------------------------------|

Bridge (don't play)

Build up
G |-------------------------|
D |2~------2~---------------|
A |--------------2~------0~-| x2
E |-------------------------|

G |------------------|
D |---------------1~-|
A |000222444222444--
E |-----------------

Chorus3
G |-----------------------------------------------------------6666644~-|
D |22222222---------------------------22222222----------221122---------|
A |---------22222222-0000000000000000----------22222222----------------|
E |--------------------------------------------------------------------|

G |-----------------------------------------------------------------------|
D |22222222---------------------------22222222-------------------------11-|
A |---------22222222-0000000000000000----------22222222-000222444222444---|
E |-----------------------------------------------------------------------|

G |-----------------------------------------------------------6666644~-|
D |22222222---------------------------22222222----------221122---------|
A |---------22222222-0000000000000000----------22222222----------------|
E |--------------------------------------------------------------------|

G |-------------------------------------------------------------|
D |22222222---------------------------22222222------------------|
A |---------22222222-0000000000000000----------22222222-000402~-|
E |-------------------------------------------------------------|

G |-------------------|
D |----------------2~-|
A |000402~------004---|
E |-------------------|

I'm 99% sure it's correct. Enjoy!
Suggest correction new What's this?
You can suggest a correction to this tab. Community and Mods will review your correction and vote to approve or reject it.
comments
We did not receive enough feedback on this tab! Please rate:
print report bad tab
1 2 3 4 5
guest
You may want to rate the tab now too:
select rating
Please do not post tabs as comments. Select "correction" instead!