Oops, an error
Loading. Please wait.

Modern March Bass Tab

347 views 1 this week
no commentswrite comment
1 2 3 4 5
please rate
add to favorites
launch autoscroll
font size
0
reset
guitar tuner
Autoscroll
slow
fast
+/-
esc
set tempo
stop
Help us to improve Ultimate-Guitar.com Take our survey!
×
Author
Run Kid Run
The Modern MArch
This Is Who We Are
2006 Tooth and Nail Records
Submitted by: goodxbye@Hotmail.com

Intro (:03)
G|----------------------------------------------------|
D|----------------------------------------------------|
A|------5-5-5-7-7-7-----------------5-5-5-7-7-7-------|
E|3-3-3-------------3-3-3---3-3-3-----------------3---|

Verse 1 (:12) - "I am too tired of running" (4x)
G|----------------|
D|----------------|
A|-----5----7-----|
E|3--------------3|

Refrain (:29) - "I long to see you again" (2x)
G|----------------|
D|----------------|
A|--0----2----3---|
E|----------------|


Chorus (:38) - "I could never walk alone"
G|------------------------------------------------|
D|------------------------------------------------|
A|-------5-5-5-7-7-7--------------5-5-5-7-7-7-----|
E|-3-3-3-------------3-3-3--3-3-3-------------3-3-|

Intro (:57)
G|----------------------------------------------------|
D|----------------------------------------------------|
A|------5-5-5-7-7-7-----------------5-5-5-7-7-7-------|
E|3-3-3-------------3-3-3---3-3-3-----------------3---|

Verse 2 part A (1:06) - "I give you my life.." (2x)
G|----------------|
D|----------------|
A|-----5----7-----|
E|3--------------3|

Verse 2 part B (1:14) - "I will use my voice to sing out"
G|----------------------------------------------------|
D|----------------------------------------------------|
A|------5-5-5-7-7-7-----------------5-5-5-7-7-7-------|
E|3-3-3-------------3-3-3---3-3-3-----------------3---|


Refrain (1:23)- "I long to see you again"
G|----------------|
D|----------------|
A|--0----2----3---|
E|----------------|

Chorus part A (1:37) - "I could never walk alone"
G|------------------------------------------------|
D|------------------------------------------------|
A|-------5-5-5-7-7-7--------------5-5-5-7-7-7-----|
E|-3-3-3-------------3-3-3--3-3-3-------------3-3-|

Chorus part B (1:39) - "You're all I have.."
G|------------------------------------------------|
D|------------------------------------------------|
A|-------5-5-5-7-7-7--------7----5----------------|
E|-3-3-3-------------3-3-3-----------333333-------|

Bridge (1:48) - "How many times.." (2x)
G|------------------------------------------------|
D|------------------------------------------------|
A|5-5-5-------5-5-5-------7-7-7-5-5-5-------------|
E|------3-3-3-------3-3-3-------------333333------|

Interlude (2:05) (2x)
G|------------------------------------------------|
D|------------------------------------------------|
A|3-3-3-------3-3-3-------3-3-3-------5-5-5-------|
E|------3-3-3-------3-3-3-------3-3-3-------------|

Refrain (2:22)- "I long to see you again" (4x)
G|----------------|
D|----------------|
A|--0----2----3---|
E|----------------|

Chorus (come in at 2:47)
G|------------------------------------------------|
D|------------------------------------------------|
A|------------5-5-5-7-7-7--------7--------333333--|
E|3--3--3-3-3-------------3-3-3-------5-----------|

G|------------------------------------------------|
D|------------------------------------------------|
A|-------5-5-5-7-7-7--------------5-5-5-7-7-7-----|
E|-3-3-3-------------3-3-3--3-3-3-------------3-3-|

G|------------------------------------------------|
D|------------------------------------------------|
A|------5-5-5-7-7-7--------7--------333333--------|
E|3-3-3-------------3-3-3-------5-----------------|

Ending part A (3x)
G|-----------------------|
D|-----------------------|
A|7--------333333--------|
E|-----5-----------------|

Ending part B (3:22)
G|------------|
D|------------|
A|7----5----3-|
E|------------|

Hope this helps somebody out. Keep in mind this was my first tab ever, but I'm fairly 
everything is correct. Feel free to email me corrections.

Your brother in Christ,
                   Tim.
Suggest correction
Give kudos to tab author, rate the tab!
1 2 3 4 5
comments
print report bad tab
guest
You may want to rate the tab now too:
select rating
Please do not post tabs as comments. Select "correction" instead!