Oops, an error
Loading. Please wait.

One In A Million Bass Tab

2,184 views 1 this week
no commentswrite comment
1 2 3 4 5
please rate
add to favorites
launch autoscroll
font size
0
reset
guitar tuner
Tab Pro tools
  • play this tab
  • loop segment
  • change instrument
  • show fretboard
  • metronome
×
Best way to learn
"One In A Million"
Autoscroll
slow
fast
+/-
esc
set tempo
stop
Contributor
-------------------------------------------------------------------------------
		   One In A Million - Run Kid Run  
-------------------------------------------------------------------------------

Tabbed By: SK8nBASS

Tuning: Standard


  Intro
G|-----------------------------|   |----------------|
D|-----------------------------|   |----------------|
A|-----------------------------|   |-2~---1~---/11~-|
E|-2--2--2-2-2--4--4-4--6--6-6-|x3 |----------------|

  Verse                  
G|-----------------------|--------------------------|
D|-----------------------|--------------------------|
A|-----------------------|--------------------------|
E|-/9~---4-4-4-4-4-4-4-4-|-2--2--2-2-2--4--4-4--/9~-| 

G|----------------------|--------------------------|--------------------|
D|----------------------|--------------------------|--------------------|
A|----------------------|--------------------------|--------------------|
E|-2--2--2-2-2--/9-9-9~-|-2--2--2-2-2--4--4-4--/9~-|-2--2--2-2-2--4-4-4-|
  
  Chorus
G|-----------------------------|   |------------|
D|-----------------------------|   |------------|
A|-----------------------------|   |-2--2--2--2-|
E|-2--2--2-2-2--4--4-4--6--6-6-|x3 |------------|

G|-----------------------------|   |---------|
D|-----------------------------|   |---------|
A|-----------------------------|   |---------|
E|-2--2--2-2-2--4--4-4--6--6-6-|x3 |-2~---4~-|

  Verse
G|------------------------------------------|--------------------------|
D|------------------------------------------|--------------------------|
A|---------------------------------2--2-2-2-|--------------------------|
E|-9~--7-6--4~-----2~----4~----2-4----------|-2--2--2-2-2--4--4-4--/9~-|

G|----------------------|--------------------------|--------------------|
D|----------------------|--------------------------|--------------------|
A|----------------------|--------------------------|--------------------|
E|-2--2--2-2-2--/9-9-9~-|-2--2--2-2-2--4--4-4--/9~-|-2--2--2-2-2--4-4-4-|

  Chorus
G|-----------------------------|   |------------|
D|-----------------------------|   |------------|
A|-----------------------------|   |-2--2--2--2-|
E|-2--2--2-2-2--4--4-4--6--6-6-|x3 |------------|

  Bridge
G|-------------------------------------------------|
D|-------------------------------------------------|
A|-4-4-4-4-4-4-4-4---------------------------------|
E|-----------------2-2-2-2-2-2-2-2-4-4-4-4-2-2-/9~-|

                                    Guitar Solo
G|---------------------------------|-------------------------------------------|
D|---------------------------------|-------------------------------------------|
A|-4-4-4-4-4-4-4-4-----------------|-------------------------------------------|
E|-----------------2-2-2-2-2-2-2-2-|-4-4-4-4-2-2-2-2-4-4-4-4-2-2-2-2-4~-/9~-2~-|

[REST]
  
  Bass Solo                                             
G|-----------------------------------------------------|
D|----------18-16-15-13-11-15-13-11~-------------------|
A|-----------------------------------------------------|
E|-/9~---------------------------------4-4-4-4-4-4-4-4-|

  End of Bridge
G|-------------------------------------------------------------------------------|
D|-------------------------------------------------------------------------------|
A|-------------------------------------------------------------------2--2--4-4-4-|
E|-2--2--2-2--4--4--4-4--2--2--2-2--4--4--4-4--2--2--2-2--4--4--4-4--------------|

  Chorus
G|-----------------------------|   |------------|
D|-----------------------------|   |------------|
A|-----------------------------|   |-2--2--2--2-|
E|-2--2--2-2-2--4--4-4--6--6-6-|x3 |------------|

G|-----------------------------|   |--------|
D|-----------------------------|   |--------|
A|-----------------------------|   |--------|
E|-2--2--2-2-2--4--4-4--6--6-6-|x3 |-4\2/9~-|

| /  slide up
| \  slide down
| h  hammer-on
| p  pull-off
| ~  vibrato
| +  harmonic
| x  Mute note
===============================================================================

comments
We did not receive enough feedback on this tab! Please rate:
print report bad tab
1 2 3 4 5
I want to post or [tab]
guest
You may want to rate the tab now too:
select rating
Please do not post tabs as comments. Select "correction" instead!