Oops, an error
Loading. Please wait.

Sure Shot Tab

347 views 1 this week
1 commentread comment
1 2 3 4 5
3 more votes to show rating
add to favorites
launch autoscroll
font size
0
reset
how to read this tab
guitar tuner
Autoscroll
slow
fast
+/-
esc
set tempo
stop
Help us to improve Ultimate-Guitar.com Take our survey!
×
Author
Difficulty
Tuning
novice
D A D G B E
|-------------------------------------|
|-------------------------------------|
|--8-8\7-7--7b-7p5-8-8\7-7--7b-7p5----|
|---------8~------8-------8~------8---|
|-------------------------------------|
|-------------------------------------|

|-------------------------------------|
|-8-8\6/9\8----8-8\6------------------|
|----------8-7------7-8~-7b-----------|
|-------------8-----------------------|
|-------------------------------------|
|-------------------------------------|
 Play this 2 times. At the end of the second time, play this:
|-------------------------------------|
|-------------------------------------|
|-8v~-7v~-5v~-------------------------|
|-------------8v~---------------------|
|-------------------------------------|
|-------------------------------------|

/\= slide up and down
 B=bend
 V=vibrato
There ya go. ill post the rest of the song when I figure it out 
Suggest correction
Give kudos to tab author, rate the tab!
1 2 3 4 5
comments
print report bad tab
1 comment total.
0 reply
DrewMeyer 771 Feb 02, 2012 03:07 PM

It sounds really good, except on this part:

|-------------------------------------|
|-8-8\6/9\8----8-8\6------------------|
|----------8-7------7-8~-7b-----------|
|-------------8-----------------------|
|-------------------------------------|
|-------------------------------------|

I think it should be
|-------------------------------------|
|-8-8\6/9\8----8-8\6------------------|
|----------8-5------7-8~-7b-----------|
|-------------8-----------------------|
|-------------------------------------|
|-------------------------------------|

guest
You may want to rate the tab now too:
select rating
Wanna post a correction for this tab? Suggest correction