Oops, an error
Loading. Please wait.

This Day Of Change Tab

718 views 1 this week
1 commentread comment
1 2 3 4 5
2 more votes to show rating
add to favorites
launch autoscroll
font size
0
reset
how to read this tab
guitar tuner
Autoscroll
slow
fast
+/-
esc
set tempo
stop
Help us to improve Ultimate-Guitar.com Take our survey!
×
Run Kid Run
This Day Of Change
This Is Who We Are
2006 Tooth And Nail Records
Submitted by: paramore_fans@yahoo.com

Key: G#

Tuning: Standard EADGBe

Chords used:
G# -   466544
F# -   244322
Fm -   133111
C# -   x46664
Eb -   x68886
Eb/G - 365xxx
Bbm -  x13321


Intro:

Silence:
G#--G#

Guitar 2:
e|-4-4--4-4--4-4--4-4-|
B|-4-4--4-4--4-4--4-4-|
G|--------------------|
D|--------------------| x2
A|--------------------|
E|--------------------|


Distortion:
G#--C#-Eb

Guitar 2:
         G#               C#         Eb
e|-------------1----|------------|---------|
B|-1--2--4--2-----4-|-2--4--1----|-2--1----|
G|------------------|----------3-|-------3-|
D|------------------|------------|---------|
A|------------------|------------|---------|
E|------------------|------------|---------|
         x2


Silence:
G#--F#

Guitar 2:
e|-4-4--4-4--4-4--4-4--2--2-|
B|-4-4--4-4--4-4--4-4--2--2-|
G|--------------------------|
D|--------------------------|
A|--------------------------|
E|--------------------------|


Verse 1:
G#
  Back up lets stop and start again
                              C#
The words I said now have new meaning
         Eb                         F#-F#
You have changed the ways I once new
G#                              F# G#
  Your love it found this heart of mine
Showed me you're real
                C#
and that you're with me
            Eb
And now I'm growing stronger in you


Refrain:
Fm         C#
Promises I found in you
G#
  along the way
Fm              C#
  Giving all to something
    G#              Eb/G
new couldn't be the same


Chorus 1:
  C#        G#
Today's the day
Eb    Fm      C#   G#
  I'm coming around
Eb        C#      G#
  No more wasting time
   Fm          Eb
On things that won't
   C#       Eb
be found at all


Interlude: Riff F#-F#

Riff:
e|------------|-2--2-|
B|------------|-2--2-|
G|-------5----|-3--3-|
D|---5h6----6-|-4--4-|
A|-6----------|-4--4-|
E|------------|-2--2-|


Verse 2:
G#
  A way of faith I
once was told
I'm finally finding
      C#
on my own
            C#
And now I'm seeing
                  F#-F#
for the first time
G#
  A world thats filled
with treasures stored
I've traded in for
          C#
something more
            Eb
And now I'm living
with a new hope


Guitar 2: in something more
e|--------8-----11-----------|
B|---8h9-----9------9--11--9-|
G|-8-------------------------|
D|---------------------------| x2
A|---------------------------|
E|---------------------------|


(Repeat Refrain And Chorus 1)


Chorus 2:
  C#        G#
Today's the day
Eb    Fm      C#   G#
  I'm coming around
Eb        C#      G#
  No more wasting time
   Fm          Eb
On things that won't
   C#       G#
be found at all
   C#       G#
be found at all


Bridge:
G# Eb/G Fm             G#
I  have lost myself in you
And I'll keep
C#      Eb
holding on
holding on


Interlude: C#--G#--Bbm--Fm--C#-G#-C#--G#--Bbm--Fm-Eb

Guitar 2:
e|-----------------|-----------------|------------|
B|---------------1-|----1------------|------------|
G|-3--1--3--1--3---|-3-----3--1--3-1-|-0-----0--1-|
D|-----------------|-----------------|----3-------|
A|-----------------|-----------------|------------|
E|-----------------|-----------------|------------|
         x2

e|---------------------------------|-------------1-4-|-3--1----|
B|---------------1-2--1----------1-|-2--1--2--4------|-------1-|
G|-3--1--3--1--3---------3--1--3---|-----------------|---------|
D|---------------------------------|-----------------|---------|
A|---------------------------------|-----------------|---------|
E|---------------------------------|-----------------|---------|


(Repeat chorus 1 twice)


Outro: G#---F#-F#-F#--G#----F#-F#
Suggest correction
Give kudos to tab author, rate the tab!
1 2 3 4 5
comments
print report bad tab
1 comment total.
0 reply
whiskrs 62 Oct 22, 2012 06:57 PM

Why didn't you just capo up a fret, instead of having everything sharp or flat? Other than that, good tab.

guest
You may want to rate the tab now too:
select rating
Wanna post a correction for this tab? Suggest correction