Oops, an error
Loading. Please wait.

Weve Only Just Begun Bass Tab

1,500 views 3 this week
2 commentsread comments
1 2 3 4 5
please rate
add to favorites
launch autoscroll
font size
0
reset
guitar tuner
Tab Pro tools
  • play this tab
  • loop segment
  • change instrument
  • show fretboard
  • metronome
×
Best way to learn
"Weve Only Just Begun"
Autoscroll
slow
fast
+/-
esc
set tempo
stop
Contributor
Difficulty
novice
Artist: Run Kid Run
Song: We've Only Just Begun
Tabbed By: Alan

NOTE:The Bridge of this song is dropped down from E->D.
Then, after the bridge while the guitar rings the note, tune back to E.

/: slide

Intro

G|-----------------|-----------------|-----------------|-----------------|
D|-----------------|-----------------|-----------------|-----------------|
A|4444444444444444-|-----------------|1111111----------|444444444444-----|
E|-----------------|2222222222222222-|--------2222222--|-----------------|

G|-----------------|-----------------|-----------------|-----------------|
D|-----------------|-----------------|-----------------|-----------------|
A|4444444444444444-|-----------------|1111111----------|444444444444-----|
E|-----------------|2222222222222222-|--------2222222--|------------444--|

Verse

G|-----------------|-----------------|-----------------|-----------------|
D|-----------------|-----------------|-----------------|-----------------|
A|4----------------|-----------------|1----------------|-----------------|
E|-----------------|2----------------|----1---2--------|444444-----------|

G|-----------------|-----------------|-----------------|-----------------|
D|-----------------|-----------------|-----------------|-----------------|
A|4----------------|-----------------|1----------------|-----------------|
E|-----------------|2----------------|----1---2--------|444444-----------|


Pre-Chorus

G|-----------------|-----------------|-----------------|-----------------|
D|-----------------|-----------------|-----------------|-----------------|
A|-----------------|-----------------|-----------------|-----------------|
E|1--2--4----------|1--2--4----------|1--2--4----------|1--2--4-444444---|


Chorus

G|-----------------|-----------------|-----------------|-----------------|
D|-----------------|-----------------|-----------------|-----------------|
A|44444444444444---|-----------------|1----------------|1----------------|
E|-----------------|22222222222222---|---4---22--------|---4---22--------|

Pre-Verse

G|-----------------|-----------------|
D|-----------------|-----------------|
A|4-44-4-4-4-4-4-4-|4-4-4-4-4-4----4-|
E|-----------------|------------444--|

Verse 2

G|-----------------|-----------------|-----------------|----------111111-|
D|-----------------|-----------------|-----------------|-----------------|
A|4-44-4-4-4-4-4-4-|-----------------|1-1-1-1----------|-----------------|
E|-----------------|2-2-2-2-2-2-2----|--------1-1-1-1--|2-2-2-2-2--------|


G|-----------------|-----------------|-----------------|-----------------|
D|-----------------|-----------------|-----------------|-----------------|
A|444444444444444--|-----------------|1111111----------|-----------------|
E|-----------------|222222222222222--|--------1111111--|22222222-444444--|

Pre-Chorus

G|-----------------|-----------------|-----------------|-----------------|
D|-----------------|-----------------|-----------------|-----------------|
A|-----------------|-----------------|-----------------|-----------------|
E|1--2--4----------|1--2--4----------|1--2--4----------|1--2--4-444444---|

Chorus

G|-----------------|-----------------|-----------------|-----------------|
D|-----------------|-----------------|-----------------|-----------------|
A|44444444444444---|-----------------|1----------------|1----------------|
E|-----------------|22222222222222---|---4---22--------|---4---22--------|

G|-----------------|-----------------|-----------------|-----------------|
D|-----------------|444444444444444--|-----------------|-----------------|
A|44444444444444---|-----------------|1----------------|1---------1------|
E|-----------------|-----------------|---4---22--------|---4---22---4---2|

Bridge (Drop down E->D, also the 16 are 16's)

G|-----------------|-----------------|-----------------|-----------------|
D|-----------------|-----------------|-----------------|-----------------|
A|-----------------|-----------------|-----------------|-----------------|
D|1---3---4--------|1---3---4--------|1111-3333-4444444|4/11-13-13-13-13-|

G|-----------------|-----------------|-----------------|-----------------|
D|-----------------|-----------------|-----------------|-----------------|
A|-----------------|-----------------|-----------------|1111111----------|
D|15-15-15-15------|-1616161616161616|16161616161616---|--------3333333--|

G|-----------------|-----------------|-----------------|-----------------|
D|-----------------|-----------------|-----------------|-----------------|
A|-----------------|1111111----------|-----------------|----------------4|
D|4444444-6666-----|--------3333333--|-4-44-4-4-4-4----|4-44-4-4-4-4-666-|

Chorus (Tune D->E after you hit the last 4 on A)

G|-----------------|-----------------|-----------------|-----------------|
D|-----------------|-----------------|-----------------|-----------------|
A|44444444444444---|-----------------|1----------------|1----------------|
E|-----------------|22222222222222---|---4---22--------|---4---22--------|

G|-----------------|-----------------|3--1-------------|-----------------|
D|-----------------|444444444444444--|-------44--------|-----------------|
A|44444444444444---|-----------------|-----------------|1----------------|
E|-----------------|-----------------|-----------------|---4---22--------|

Outro

G|-----------------|
D|-----------------|
A|1----------------|
E|---4---22--------|


That's It!

This was my first tab, so comments would be nice. And, I know it's a pain having to tune 
to D and back to E for some people, but I've only been playing a year, and it's very 
to me. But anyways, enjoy!
comments
We did not receive enough feedback on this tab! Please rate:
print report bad tab
1 2 3 4 5
2 comments total.
0 reply
jwldr wrote on December 16 2008, 12:18 pm

its a lot easier to play with a five string bass

0 reply
SK8nBASS wrote on October 3 2010, 09:13 am

okay tab, but the whole song is obviously tuned down half-step

I want to post or [tab]
guest
You may want to rate the tab now too:
select rating
Please do not post tabs as comments. Select "correction" instead!