Oops, an error
Loading. Please wait.

Blackmail Bass Tab

718 views 1 this week
no commentswrite comment
1 2 3 4 5
2 more votes to show rating
add to favorites
launch autoscroll
font size
0
reset
guitar tuner
Autoscroll
slow
fast
+/-
esc
set tempo
stop
Help us to improve Ultimate-Guitar.com Take our survey!
×
Author
Difficulty
novice
THE RUNAWAYS - BLACKMAIL

Intro:

G----------------------------------------------------|
D---------------------------------------8----8-10----|
A----------------------7/10---8-10-8-10---10---------|
E----1-3----1-3----1-3-------------------------------|

G------------------12-10-----------------------------|
D------------------------12-11-10--------------------|
A--------7/10---10----------------13-10--------------|
E----1-3---------------------------------------------|

Verse:

G----------------------------------------------------|
D----------------------------------------------------|
A---------------------------------3-1-3--------------|
E----1-3----1-3----1-3----1-3---3--------------------|

Chorus:

G--------0-2-3-2-0-----------------------------------|
D------2-----------2-----0-2-----0-2-----------------|
A----3-----------------2-------2---------------------|
E--------------------3-------3-----------------------|

G--------0-2-3-2-0-----------------------------------|
D------2-----------2---------------0-2-3-2-0---------|
A----3---------------------------2-----------2-------|
E--------------------1----2----3---------------------|

End:

G------------------------------------3---3-5---------|
D----------------------3/5---3-5-3-5---5-------------|
A----------------------------------------------------|
E----1-3----1-3----1-3-------------------------------|

G----------------------------------------------------|
D--------3/5-3-5-3-----------------------------------|
A------------------5-4-3-----------------------------|
E----1-3-----------------6-3----1-3------------------|
Suggest correction
Give kudos to tab author, rate the tab!
1 2 3 4 5
comments
print report bad tab
guest
You may want to rate the tab now too:
select rating
Wanna post a correction for this tab? Suggest correction