Oops, an error
Loading. Please wait.

Born To Be Bad Bass Tab

1,013 views 3 this week
no commentswrite comment
1 2 3 4 5
please rate
add to favorites
launch autoscroll
font size
0
reset
guitar tuner
Tab Pro tools
  • play this tab
  • loop segment
  • change instrument
  • show fretboard
  • metronome
×
Best way to learn
"Born To Be Bad"
Autoscroll
slow
fast
+/-
esc
set tempo
stop
Contributor
Difficulty
novice
Song: Born to be bad by The Runaways
Tabbed by Ivy


INTRO (listen carefully to get the rhythm)

G--------------------------|
D--------------------------|
A------------3-------------|
E--5--0-3-5----5-5p3--3-0-3|

G--------------------------|
D--------------------------|
A--2--2-2--5---------------|
E------2-----7p5--5-0-5----|

VERSE


G--------------------------|
D--------------------------|
A--------------------------|
E--3-5--3-5--5-5p3--0-3----|

G--------------------------|
D--------------------------|
A---2--------5-------------|
E--3---5-7--7-7p5--3-5-----|

CHORUS


G--------------------------|
D--------------------------| x2
A--------------------------|
E--5-55-4-44-3-3333-0-3-4-5|

During the bridge/guitar solo:

G--------------------------|
D--------------------------|
A--------------------------|
E--5--0-5---5p3---------0-3|

G--------------------------|
D--------------------------|
A---2--2---7-5-------------|
E--3--3--------7-7p5-0-5---|

Verse after the guitar solo:

G--------------------------|
D--------------------------|
A-----------3--------------|
E--5--0-5----5-5p3--0-0-3--|

G--------------------------|
D--------------------------|
A----2----2--7-5-----------|
E-3---0-3-------7-7p5-0-3-5|

The intro I tabbed is a little different from the original one, but I think my version 
sounds better (:
comments
We did not receive enough feedback on this tab! Please rate:
print report bad tab
1 2 3 4 5
I want to post or [tab]
guest
You may want to rate the tab now too:
select rating
Please do not post tabs as comments. Select "correction" instead!