Oops, an error
Loading. Please wait.

California Paradise Bass Tab

1,539 views 1 this week
no commentswrite comment
1 2 3 4 5
please rate
add to favorites
launch autoscroll
font size
0
reset
guitar tuner
Autoscroll
slow
fast
+/-
esc
set tempo
stop
Help us to improve Ultimate-Guitar.com Take our survey!
×
Author
Difficulty
novice
intro

G-----------------------------------------------|
D-----------------------------------------------|
A-----------------------------------------------|
E--33--5555555555555555--33--55555555555555555--|

verse

G-----------------------------------------------------|
D-----------------------------------------------------|
A------------------3333333333333333-------------------|
E--555555555555555------------------3333333333333333--|

G-----------------------------------------------------------|
D-----------------------------------------------------------|
A-------------3-0---------------------------33333333333333--|
E--33-5--33-5-----33-5--33--555555555555555-----------------|

G-----------------------------------------|
D-----------------------------------------|
A-------------------------------3-0-------|
E--3333333333333333--33-5--33-5-----33-5--|

chorus

G--------------------|
D--------------------|
A--------------------|
E--1----7----1----7--|

intro

verse

chorus

solo 1/verse

chorus

solo 2/verse

chorus

end

G----------|
D----------|
A----------|
E--3----5--|
Suggest correction
Give kudos to tab author, rate the tab!
1 2 3 4 5
comments
print report bad tab
guest
You may want to rate the tab now too:
select rating
Wanna post a correction for this tab? Suggest correction