Oops, an error
Loading. Please wait.

Cherry Bomb Bass Tab

version 2
version 2

Whole song

Interactive

7,577 views 3 this week
no commentswrite comment
1 2 3 4 5
1 last vote to show rating
add to favorites
launch autoscroll
font size
0
reset
guitar tuner
Autoscroll
slow
fast
+/-
esc
set tempo
stop
Help us to improve Ultimate-Guitar.com Take our survey!
×
Difficulty
novice
The Runaways
Cherry Bomb Film Clip the song is played a step down, tuning still normal
Bass Tab


Intro

------------------------------------|
------------------------------------|
------------------------------------|
-------6-6-6-6-6-6-6-6-6-6-6-6------|

Verse
             *This Pattern changes a bit from verse to verse
                        (listen to the recording to get the virations)
-----------------------------------------------------------|
-----------------------------------------------------------|
------------------------------------------------------4----|
-------6-6-6-4-6-6-6-4-6-6-6-4-6-6-6-4-6-6-----------------|     x4
   Cant stay at home cant stay at school


Chorus
             *Quick Hammer on, it sounds a bit better to follow a bit of the guitar...
-----------------------------------------------------------------|
------------------------4^6--------------------------------------|
----------------------------4^6-------------------------6--------|
------1----------4------------------6-6-6-6-6-6-6-6--------------|
  Hello daddy  hello mum          ch ch ch ch ch ch  cherry bomb


Repeat verse
Chorus
Solo  *repeat Verse
Chorus


   *Key Change Third Verse And Chorus


Verse
          * Once Again Pattern changes a bit in the verse
------------------------------------------------------|
------------------------------------------------------|
--------------------------------------------6---------|
----------8-8-8-8-8-8-8-8-6-8-8-8-6-8-8-8-------------|

Chorus
-------------------------------------------------------------|
---------------6^8-------------------------------------------|
-------------------8^6--------------------------8------------|
------3--6--------------------8-8-8-8-8-8-8-8-8--------------|

Outro
----------------------------------------------------------|
----------------------------------------------------------|
-------------------------------------------------8--------|
-----------------------------8-8-8-8-8-8-8-8-8------------|

noddy_299@hotmail.com
Suggest correction
Give kudos to tab author, rate the tab!
1 2 3 4 5
comments
print report bad tab
guest
You may want to rate the tab now too:
select rating
Wanna post a correction for this tab? Suggest correction