Oops, an error
Loading. Please wait.

Cherry Bomb Bass Tab

version 3
version 3

Whole song

Interactive

8,025 views 42 this week
no commentswrite comment
1 2 3 4 5
x 9
add to favorites
launch autoscroll
font size
0
reset
guitar tuner
Autoscroll
slow
fast
+/-
esc
set tempo
stop
Help us to improve Ultimate-Guitar.com Take our survey!
×
Difficulty
novice
Intro:
G|-----------------------|
D|-----------------------|
A|-----------------------|
E|-777777777777777777777-|

Verse: 1
G|---------------------|
D|---------------------|
A|-------------------5-| play 4 times
E|-7-7-7-7-7-7-7-7-7---|

Chorus:
G|-----------------------------------|
D|-----------------------------------|
A|-------------------7-------------7-| play 2 times
E|-2--4--7-7-7-7-7-7---7-7-7-7-7-7---|

Verse: 2
G|---------------------|
D|---------------------|
A|-------------------5-| play 4 times
E|-7-7-7-7-7-7-7-7-7---|

Chorus:
G|-----------------------------------|
D|-----------------------------------|
A|-------------------7-------------7-| play 2 times
E|-2--4--7-7-7-7-7-7---7-7-7-7-7-7---|

Guitar Solo:
G|---------------------|
D|---------------------|
A|-------------------5-| play 4 times
E|-7-7-7-7-7-7-7-7-7---|

Chorus:
G|-----------------------------------|
D|-----------------------------------|
A|-------------------7-------------7-| play 2 times
E|-2--4--7-7-7-7-7-7---7-7-7-7-7-7---|


G|-------------------------|
D|-------------------------|
A|-------------------------|
E|-9-9-9-9-9-9-9-9-9-9-9-9-|

Verse 3:
G|---------------------|
D|---------------------|
A|-------------------7-| play 4 times
E|-9-9-9-9-9-9-9-9-9---|

Chorus 2:
G|-----------------------------------|
D|-----------------------------------|
A|-------------------9-------------9-| play 2 times
E|-4--7--9-9-9-9-9-9---9-9-9-9-9-9---|

Outro:
G|-------------------|
D|-------------------|
A|-----------------9-| play 4 times
E|-9-9-9-9-9-9-9-9---|
Suggest correction
comments
print report bad tab
guest
You may want to rate the tab now too:
select rating
Wanna post a correction for this tab? Suggest correction