Oops, an error
Loading. Please wait.

Im A Million Tab

version 2
version 2

Whole song

Interactive

247 views 1 this week
no commentswrite comment
1 2 3 4 5
please rate
add to favorites
launch autoscroll
font size
0
reset
how to read this tab
guitar tuner
Tab Pro tools
  • play this tab
  • loop segment
  • change instrument
  • show fretboard
  • metronome
×
Best way to learn
"Im A Million"
Autoscroll
slow
fast
+/-
esc
set tempo
stop
INTRO:

Gt1
 E|------------------------------------|
 B|------------------------------------|
 G|-2h4-4~~--=---=---=---=---=---=---=-|
 D|------------------------------------|
 A|------------------------------------|
 E|------------------------------------|
  |                                    |
Gt2                                    |
 E|------------------------------------|
 B|-------------------12~~--=---=---=--|
 G|----------------14------------------|
 D|-------------14---------------------|
 A|------------------------------------|
 E|------------------------------------|
               pm----|

Hold the final note from both staves above through 2 measures of drums, then:

Figure 1 - 

Gt1
 E|------------------------------------|-----------------------------------|
 B|------------------------------------|-----------------------------------|
 G|-4p2p0------------------------------|-4p2p0------------------2---4------|
 D|----------2---0---2~----0---0--2----|----------2---0---2~----2---4------|
 A|------------------------------------|------------------------0---2------|
 E|------------------------------------|-----------------------------------|
  | 1        +   2   +  3  +   4   +     1        +   2   +  3  +   4   +  |
  |                                                                        |
Gt2                                                                        |4x
 E|------------------------------------|-----------------------------------|
 B|------------------------------------|-----------------------------------|
 G|-16p14p12---------------------------|-16p14p12--------------------------|
 D|----------14--12--14~---12--12-14---|----------14--12--14~--------------|
 A|------------------------------------|------------------------12--14-----|
 E|------------------------------------|-----------------------------------|
  |                                                                        |
  |                                                                        |
Gt3 E5                                  E5                      A5  B5     |
 E|------------------------------------|-----------------------------------|
 B|------------------------------------|-----------------------------------|
 G|-9--------9---x-x-x---x-x-----------|-9--------9---x-x-x----------------|
 D|-9--------9---x-x-x---x-x-----------|-9--------9---x-x-x---x-7---9------|
 A|-7--------7---x-x-x---x-x-----------|-7--------7---x-x-x---x-7---9------|
 E|------------------------------------|----------------------x-5---7------|
    .        .   .   .  .  .   .   .     .        .   .   .  .  .   .   . 


 E ---------------------------------|
 B ---------------------------------|
 G ---------------------------------|
 D -----------------------0-----2-0-|
 A -2-------------------2---0-------|
 E ---------3-------3---------------|
    .       .       .       .


1ST VERSE:

   Bsus2                             A5
 E ---------------------2-----------|-------------------------0-------|
 B -------------2-----------2-------|---------------------------3-----|
 G ---------4-------------------4---|---------2-----------2h4---------|
 D -----4---------------------------|---------2-------2h4-------------|
 A -2-------------------------------|-0-------0-----------------------|
 E ---------------------------------|---------------------------------|
   Mother  and  father  came  from   New York City


   G                                 Bsus2            G       A
 E ---------------------3-----------|---------------------------------|
 B -------------------------3-------|-------------2-------------------|
 G -------------0-------------------|---------4-------------------2---|
 D ---------0-----------------------|-----4-----------------0---2---2-|
 A -----2-----------------------0---|-2-------------------2---0-------|
 E -3-------------------------------|-----------------3---------------|
   Working their life            a - way


   Bsus2                             A5
 E ---------------------2-----------|-------------------------0-------|
 B -------------2-----------2-------|---------------------------3-----|
 G ---------4-------------------4---|---------2-----------2h4---------|
 D -----4---------------------------|---------2-------2h4-------------|
 A -2-------------------------------|-0-------0-----------------------|
 E ---------------------------------|---------------------------------|
   Know  they'll  give  me            anything               that  a 


   G                                 A6
 E ---------------------3-----------|---------------------2-----------|
 B -------------------------3-------|-------------2-----------2-------|
 G -------------0---------------0---|---------2-------------------2---|
 D ---------0-----------------------|-----2---------------------------|
 A -----2---------------------------|-0-------------------------------|
 E -3-------------------------------|---------------------------------|
   little  girl  needs          to   make   my   life


   B
 E ---------------------------------|
 B -4-------------------------------|
 G -4-------------------------------|
 D -4-------------------------------|
 A -2-------------------------------|
 E ---------------------------------|
   pretty


Then: Play FIGURE 1


2ND VERSE:   (played same as 1st Verse)

Seen you before, but you're making me sore
But I'm trying not to make a sound
I couldn't help notice you were wanting me
You said, "I can help you make your life pretty"


Then: Play FIGURE 1


CHORUS:

   C5          B5 C5                   E5
 E -----------------|-----------------|-----------------|-----------------|
 B -----------------|-----------------|-----------------|-----------------|
 G -5-----------4/5=|=----------------|-9---------------|-----------------|
 D -5-----------4/5=|=----------------|-9---------------|-----------------|
 A -3-----------2/3=|=----------------|-7---------------|-----------------|
 E -----------------|-----------------|-----------------|-----------------|
    Oh,                    baby, I'm a million,          Oh,    yeah


   C5          B5 C5                   E5                D5
 E -----------------|-----------------|-----------------|-----------------|
 B -----------------|-----------------|-----------------|-----------------|
 G -5-----------4/5=|=----------------|-9---------------|-7---------------|
 D -5-----------4/5=|=----------------|-9---------------|-7---------------|
 A -3-----------2/3=|=----------------|-7---------------|-5---------------|
 E -----------------|-----------------|-----------------|-----------------|
    Oh,                    baby, I'm a million

(1 measure drums)


GUITAR SOLO:

   E5                                                         A5  B5
 E ---------------------------------|-------0-----------------------------|
 B ---------------------------------|-----0-------------------------------|
 G ---2^w--2^wr-0---0---------------|---2-----2p0---0---2p0---0---0-------|
 D ---------------2---2-----0-2-----|-------------2---4-----2---4---2-----|
 A ---------------------------------|-------------------------------------|
 E ---------------------------------|-------------------------------------|


   E5                                                     A5  B5
 E ---------------------------2-----|-------------------------------------|
 B ------3------3-------3p0-----5---|---8^w--8^wr-5---8p5-8-5~-----/(17)\-|
 G --2h4----2h4---2h4-4-----4-------|---------------7---------------------|
 D ---------------------------------|-------------------------------------|
 A ---------------------------------|-------------------------------------|
 E ---------------------------------|-------------------------------------|


   A5
 E -----------12---------12---------12-----------------------------|
 B --------12---------12---------12--------------------------------|
 G ---14^w-------14^w-------14^w-------14p12-14^(16)r14p12----12~--|
 D --------------------------------------------------------14------|
 A ----------------------------------------------------------------|
 E ----------------------------------------------------------------|


   A5                                   C5        D5
 E -----------12-------12-12--15p12--------------------------------|
 B --------12----12-----------------12--15p12-12--15p12-12---------|
 G ---14^w-------------------------------------------------14^w----|
 D ----------------------------------------------------------------|
 A ----------------------------------------------------------------|
 E ----------------------------------------------------------------|


   E5                                                     A5  B5
 E ---------------------------------|-----------------------0---------|
 B ---------------------------------|---------------------0-----------|
 G --2-2^w-2^wr-0-------------------|----2^wr-----0---0-2-------------|
 D ---------------2-0tr2------------|---------------2-----------------|
 A ---------------------------------|---------------------------------|
 E ---------------------------------|---------------------------------|


   C5                       B5  C5
 E ---------------------------------|-2-3-5-3-2---2---------2-3---2-0-|
 B -------------------------3---3-5-|-----------5---5---3-5-----5-----|
 G ---------0-------0-4-4-4---4-----|---------------------------------|
 D ---0-2-4---0-2-4-----------------|---------------------------------|
 A ---------------------------------|---------------------------------|
 E ---------------------------------|---------------------------------|


   E5
 E --------------------------|---12--12---------12------------------------|
 B -5^w-5~-------------------|----------12-15^w----12-------12------------|
 G --------------------------|------------------------14----------12-14^w=|
 D --------------------------|---------------------------14----14---------|
 A --------------------------|--------------------------------------------|
 E --------------(15)\--(12)\|--------------------------------------------|


   C5                                             B5       C5
 E ------12----------12----------12----------12--------------------|
 B ---12----------12----------12----------12-----15^w-----15^w-----|
 G =---------14^w--------14^w--------14^w--------------------------|
 D ----------------------------------------------------------------|
 A ----------------------------------------------------------------|
 E ----------------------------------------------------------------|


   C5
 E --------------------------------------------15^wr-12----|
 B -15^wr-12------------------12------------15----------15=|
 G ----------14^(16)r14p12----------14-14^w----------------|
 D ------------------------14----14------------------------|
 A --------------------------------------------------------|
 E --------------------------------------------------------|


   E5
 E --------15----------------------------------------------|
 B =^(17)------15^w--15^w----------------------------------|
 G --------------------------------------------------------|
 D --------------------------------------------------------|
 A --------------------------------------------------------|
 E --------------------------(15)\------(12)\------(12)\---|


   D5
 E --------------------------------------------------------|
 B --------------------------------------------------------|
 G ---------------12-14^w---14p12----14p12----12-14^w------|
 D ---------12-14-----------------14-------14--------------|
 A ---12h14------------------------------------------------|
 E --------------------------------------------------------|



 E -12-----------------------------------------|
 B ----12-15^w---15^w--------------------------|
 G --------------------------------------------|
 D --------------------------------------------|
 A --------------------------------------------|
 E -----------------------------(15)\---(12)\--|


Then: Play FIGURE 1


3RD VERSE:   (played same as 1st Verse)

You like to mess around with your favourite guns
I hope you blow yourself to hell
'Cause I've got the need, honey, I've got the greed
Just to make my life a little more pretty


Then: Play FIGURE 1


Play CHORUS


Play FIGURE 1 2x, then:


Gt1
 E|------------------------------------|-----------------------------------|
 B|------------------------------------|-----------------------------------|
 G|-9\7p5------------------------------|-9\7p5------------------5---7------|
 D|----------7---5---7-----5---5--7----|----------7---5---7-----5---7------|
 A|------------------------------------|------------------------3---5------|
 E|------------------------------------|-----------------------------------|
  |                                                                        |
  |                                                                        |
Gt2 A5                                  A5                      C5  D5     |
 E|------------------------------------|-----------------------------------|
 B|------------------------------------|-----------------------------------|
 G|------------------------------------|----------------------x-5---7------|
 D|-7--------7---x-x-x---x-x-----------|-7--------7---x-x-x---x-5---7------|
 A|-7--------7---x-x-x---x-x-----------|-7--------7---x-x-x---x-3---5------|
 E|-5--------5---x-x-x---x-x-----------|-5--------5---x-x-x----------------|


Then: Play FIGURE 1 1x


   E5
 E ------------------------------------|
 B ------------------------------------|
 G -/-9--9--9--------------------------|
 D -/-9--9--9--------------------------|
 A -/-7--7--7--------------------------|
 E ------------------------------------|


------------------------------------------------------------------------------
Notes:
-4/4 time -- bar lines do indicate timing
-in the guitar solo, if a staff isn't divided with a bar line, that staff
 is one measure (eg. 3rd and 4th staff of guitar solo are each 1 measure)
-in Figure 1, the spacing for the Guitar 1 part is spread out the way it 
 is to accomodate the Guitar 2 part (which needs more space than the Gt1 
 part) so that the two parts align properly on the staff, but the first 4 
 notes of the Guitar 1 part are played in quick succession (despite the wide 
 space between the 3rd and 4th notes)
-dots (...) under a staff are for timing - under Staff 5 they represent
 1+2+, etc., and under Staff 6 they represent 1234

^...bend (w=whole tone)                 /...slide up
r...release bend                        \...slide down
h...hammer on                           ~...vibrato
p...pull off                            =...hold note
pm..palm mute                           x...muted note
comments
We did not receive enough feedback on this tab! Please rate:
print report bad tab
1 2 3 4 5
I want to post or [tab]
guest
You may want to rate the tab now too:
select rating
Please do not post tabs as comments. Select "correction" instead!