Oops, an error
Loading. Please wait.

Is It Day Or Night? Bass Tab

302 views 1 this week
no commentswrite comment
1 2 3 4 5
excellent!
x 3
add to favorites
launch autoscroll
font size
0
reset
guitar tuner
Autoscroll
slow
fast
+/-
esc
set tempo
stop
Help us to improve Ultimate-Guitar.com Take our survey!
×
Author
Difficulty
novice
The Runaways - Is it day or night?


Intro and 1st verse:

G -----------------------------|
D ------------------------1----|
A ----3-3-2-3-3-2-3-3-2-3------|
E -----------------------------| (8x)


Chorus:

G -----------------------------------------------|
D ----5-5-3-3---------1---------------------1----|
A ------------3-3-2-3---3-3-2-3-3-2-3-3-2-3------|
E -----------------------------------------------| (3x)


2nd verse:

G -----------------------------|
D ------------------------1----|
A ----3-3-2-3-3-2-3-3-2-3------|
E -----------------------------| (4x)


Chorus:

G -----------------------------------------------|
D ----5-5-3-3---------1---------------------1----|
A ------------3-3-2-3---3-3-2-3-3-2-3-3-2-3------|
E -----------------------------------------------| (3x)


During guitar solo:

G -----------------------------|
D ------------------------3----|
A ----5-5-4-5-5-4-5-5-4-5------|
E -----------------------------| (4x)


G ---------------------------------------------------------------|
D ------3-----3---3-5-----5---5---------1---1-----3-----3---3----|
A ----3-----3---3-----5-----5---5-3-2-----2---2-3-----3---3------|
E ---------------------------------------------------------------| (1x)


G -----------------------------|
D ------------------------3----|
A ----5-5-4-5-5-4-5-5-4-5------|
E -----------------------------| (4x)


Chorus:

G -----------------------------------------------|
D ----7-7-5-5---------3---------------------3----|
A ------------5-5-4-5---5-5-4-5-5-4-5-5-4-5------|
E -----------------------------------------------| (3x)


End:

G ------------------------------------------------------|--R--|
D ------------------------3------------------------3----|--R--|
A ----5-5-4-5-5-4-5-5-4-5------5-5-4-5-5-4-5-5-4-5------|--R--|
E ------------------------------------------------------|--R--|


G -----------------------------|--R--|-----------------------------------|
D ------------------------3----|--R--|------------------------3----------|
A ----5-5-4-5-5-4-5-5-4-5------|--R--|----5-5-4-5-5-4-5-5-4-5-----4-5----|
E -----------------------------|--R--|-----------------------------------|
Suggest correction
What's this?
You can suggest a correction to this tab. Community and Mods will review your correction and vote to approve or reject it.
comments
We did not receive enough feedback on this tab! Please rate:
print report bad tab
1 2 3 4 5
guest
You may want to rate the tab now too:
select rating
Please do not post tabs as comments. Select "correction" instead!