Oops, an error
Loading. Please wait.

Neon Angels On The Road To Ruin Bass Tab

2,819 views 1 this week
no commentswrite comment
1 2 3 4 5
please rate
add to favorites
launch autoscroll
font size
0
reset
guitar tuner
Autoscroll
slow
fast
+/-
esc
set tempo
stop
Help us to improve Ultimate-Guitar.com Take our survey!
×
Difficulty
intermediate
The Runaways
Neon Angels On The Road To Ruin
Bass Tabs
Tabbed by Cassey noddy_299@hotmail.com

Intro
--------------------------------------|
--------------------------------------|
------7--------------7----------------|
--------------------------------------|

---------------9----------------------------|
--------5^7--------7--5--4^5 4^5------------|
-7-7-7--------------------------------------|
--------------------------------------------|

---------------9------------------------------|
--------5^7-------7--5---4^5-5----------------|
-7-7-7----------------------------------------|
----------------------------------------------|

---------------9----------------------------|
--------5^7--------7--5--4^5 4^5------------|
-7-7-7--------------------------------------|
--------------------------------------------|

---------------9-----------------------|
--------5^7----------------------------|
-7-7-7---------------------------------|
---------------------------------------|


              *Listen to Recording For how many times played (This Is Faster)
--------------------------------------------------------|
--------------------------------------------------------|
---7-7-7-5---7-7-7-5--7-7-7-5--7-7-7-5-----5------------|
---------------------------------------------5----------| x3
 No One here gets out alive......
                                                                *Play last time through
---------------------------------------------------|-----5^7-777--5^7-777--|
---------------------------------------------------|-----------------------|
---7-7-7-5---7-7-7-5--7-7-7-5--7-7-7-5-------------|-----------------------|
---------------------------------------------------|-----------------------|

Chorus           *Listen To Recording To get timing
--------------------------------------------------------------------------|
-----7-7-7-5-7-7-5-7-7--------7^5------^5---------------------------------|
-----------------------------------^7-------------------------------------|
--------------------------------------------------------------------------|
Let me tell you what       we've been doin'
Neon Angels on the road    to ruin

Verse
Chorus

Solo
------------------------------------------------------|
---------------------------------------7-7------------|
--------7-7-10-10-7-7-10-10-7-7-10-10-----------------|
------------------------------------------------------| x4

---------------------------------------7-7------------|
--------7-7-10-10-7-7-10-10-7-7-10-10-----------------|
------------------------------------------------------|
------------------------------------------------------| x2

 Return to
        Verse


Structure

   Intro
   Verse
   Verse
   Chorus
   Solo
   Verse
   Chorus
 --Break---
   Outro

Noddy_299@hotmail.com
Suggest correction
Give kudos to tab author, rate the tab!
1 2 3 4 5
comments
print report bad tab
guest
You may want to rate the tab now too:
select rating
Wanna post a correction for this tab? Suggest correction