Oops, an error
Loading. Please wait.

You Drive Me Wild Tab

7,423 views 1 this week
no commentswrite comment
1 2 3 4 5
2 more votes to show rating
add to favorites
launch autoscroll
font size
0
reset
how to read this tab
guitar tuner
Autoscroll
slow
fast
+/-
esc
set tempo
stop
Help us to improve Ultimate-Guitar.com Take our survey!
×
Author
Difficulty
novice
Tabbed by:kkelly13


EADGBe

Intro:

|----------0--0--------0--0--------0-|
|----------0--0--------0--0--------0-|     x4
|------------------------------------|
|--2-2-------------------------------|
|--2-2-------------------------------|
|--0-0--3b--------3b---------3b------|

Verse:
Bass guitar...
"You know when you're close you really turn me on."...


|----------0--0--------0--0--------0-|
|----------0--0--------0--0--------0-|
|------------------------------------|
|--2-2-------------------------------|
|--2-2-------------------------------|
|--0-0--3b--------3b---------3b------|


Tabbed by:kkelly13

"That's why I want you so bad when you're gone, yeah."...

|----------0--0--------0--0--------0-|
|----------0--0--------0--0--------0-|
|------------------------------------|
|--2-2-------------------------------|
|--2-2-------------------------------|
|--0-0--3b--------3b---------3b------|



Chorus:

"...please stay with me and don't you leave me alone."


             "You drive me wild"
|--------------------------------------------|
|--------------------------------------------|
|--------------------------------------------|
|--------------------------------------------|
|------------7-7-9-9-7-7-9-9-7-7-9-9-7-7-9-9-|
|---2-3-4-5--5-5-5-5-5-5-5-5-5-5-5-5-5-5-5-5-|

|--------------------------------------------|
|--------------------------------------------|
|--------------------------------------------|
|--9-9-11-11-9-9-11-11-9-9-11-11-9-9-11-11---|
|--7-7-7--7--7-7-7--7--7-7-7--7--7-7-7--7----|
|--------------------------------------------|

|--------------------------------------------|
|--------------------------------------------|
|--------------------------------------------|
|--------------------------------------------|
|------------7-7-9-9-7-7-9-9-7-7-9-9-7-7-9-9-|
|---2-3-4-5--5-5-5-5-5-5-5-5-5-5-5-5-5-5-5-5-|

|--------------------------------|
|--------------------------------|
|--------------------------------|
|-7-9-9--9-9-9-9-9-9-9-9-9-9-9-9-|
|-9-9-9--9-9-9-9-9-9-9-9-9-9-9-9-|
|-7-7-7--7-7-7-7-7-7-7-7-7-7-7-7-|


Tabbed by:kkelly13
Suggest correction
Give kudos to tab author, rate the tab!
1 2 3 4 5
comments
print report bad tab
guest
You may want to rate the tab now too:
select rating
Wanna post a correction for this tab? Suggest correction