Oops, an error
Loading. Please wait.

Adventure Galley tab

version 4
version 4

Whole song

Interactive

25 views 1 this week
no commentswrite comment
1 2 3 4 5
3 more votes to show rating
add to favorites
×
Save as Personal and add changes to this tab that will be seen only by you. Learn more ›
×
You can save this tab as Personal to edit and correct it or add notes. All changes will be seen only by you. Learn more »
launch autoscroll
font size
0
reset
how to read this tab
guitar tuner
edit
Autoscroll
slow
fast
+/-
esc
set tempo
stop
Title: Adventure Galley
Artist: Running Wild
Album: The Rivalry
Author: AllJudasPriest

There are two guitars in this song. In order to make it easier, note that the two 
guitars are playing the same thing, unless noted otherwise.

[A] Intro 1

E|------------------------------------------------|-------------------|
B|-------------Rerpeat Four Times-----------------|-------------------|
G|-o-4--4-----------4-----------4-----------4---o-|-4-4-----------4-5-|
D|-o-4--4-----------4-----------4-----------4---o-|-4-4-----------4-5-|
A|---2--2--2--2--2--2--2--2--2--2--2--2--2--2--2--|-2-2-2-2-2-2-2-2-3-|
E|------------------------------------------------|-------------------|

[B] Intro 2/Chorus (Rhythm)

|-------------|-----------------|-------------|-----------------|
|-------------|-----------------|-------------|-----------------|
|-6-----------|-------2----4----|-6-----------|-------4----2----|
|-6-----2-----|-4-----2----4----|-6-----2-----|-4-----4----2----|
|-4-----2-----|-4-----0----2----|-4-----2-----|-4-----2----0----|
|-------0-----|-2---------------|-------0-----|-2---------------|

[B] Intro 2/Chorus (Lead)
|------------------------------------------|------------------------------------------|
|------------------------9-9-9-9-----------|--------9-9-------------------------------|
|--------------9-9-11-11---------11-11-9-9-|--11-11-----11-11-9-9-11-11-9-9-----------|
|--11-11-11-11-----------------------------|--------------------------------11-11-9-9-|
|------------------------------------------|------------------------------------------|
|------------------------------------------|------------------------------------------|

|------------------------------------------|------------------------------------------|
|------------------------9-9-9-9-------9-9-|--12-12-9-9-------------------------------|
|--------------9-9-11-11---------11-11-----|------------11-11-9-9-11-11-9-9-----------|
|--11-11-11-11-----------------------------|--------------------------------11-11-9-9-|
|------------------------------------------|------------------------------------------|
|------------------------------------------|------------------------------------------|

[C] Verses

Guitar 1: (Palm Mute and slight Phraser effect throughout)
|---------------------------------|---------------------------------|
|---------------------------------|---------------------------------|
|---------------------------------|---------------------------------|
|---------------------------------|---------------------------------|
|-4-4-4-4-4-4-4-4-4-4-4-4-4-4-4-4-|-4-4-4-4-4-4-4-4-2-2-2-2-4-4-2-2-|
|---------------------------------|---------------------------------|

|---------------------------------|---------------------------------|
|---------------------------------|---------------------------------|
|---------------------------------|---------------------------------|
|---------------------------------|---------------------------------|
|---------------------------------|-------------------------2-2-----|
|-0-0-0-0-0-0-0-0-0-0-0-0-0-0-0-0-|-0-0-0-0-0-0-0-0-4-4-4-4-----4-4-|

|---------------------------------|---------------------------------|
|---------------------------------|---------------------------------|
|---------------------------------|---------------------------------|
|---------------------------------|---------------------------------|
|-2-2-4-4-4-4-4-4-4-4-4-4-4-4-4-4-|-4-4-4-4-4-4-4-4-2-2-2-2-4-4-2-2-|
|---------------------------------|---------------------------------|

|---------------------------------|-----------------------|
|---------------------------------|-----------------------|
|---------------------------------|-----------------------| Repeat
|---------------------------------I|--------------------4-| Twice
|---------------------------------|------------------6--2-|
|-0-0-0-0-0-0-0-0-0-0-0-0-0-0-0-0-|-0-0-0-0-0-0-0-0--4----|

Guitar 2: (Palm Mute and slight Flanger effect throughout)

--------------------------------------------------|--------------------------------------------------|
--------------------------------------------------|--------------------------------------------------|
--------------------------------------------------|--------------------------------------------------|
--11-11-11-11-11-11-11-11-11-11-11-11-11-11-11-11-|--11-11-11-11-11-11-11-11-9--9--9--9--11-11-9--9--|
--------------------------------------------------|--------------------------------------------------|
--------------------------------------------------|--------------------------------------------------|

--------------------------------------------------|--------------------------------------------------|
--------------------------------------------------|--------------------------------------------------|
--------------------------------------------------|--------------------------------------------------|
--------------------------------------------------|--------------------------------------9--9--------|
--7--7--7--7--7--7--7--7--7--7--7--7--7--7--7--7--|--7--7--7--7--7--7--7--7--11-11-11-11-------11-11-|
--------------------------------------------------|--------------------------------------------------|

--------------------------------------------------|--------------------------------------------------|
--------------------------------------------------|--------------------------------------------------|
--------------------------------------------------|--------------------------------------------------|
--9--9--11-11-11-11-11-11-11-11-11-11-11-11-11-11-|--11-11-11-11-11-11-11-11-9--9--9--9--11-11-9--9--|
--------------------------------------------------|--------------------------------------------------|
--------------------------------------------------|--------------------------------------------------|

--------------------------------------------------|-------------------------------------|
--------------------------------------------------|-------------------------------------|

--------------------------------------------------|--------------------------8----11----| Repeat

--------------------------------------------------|--------------------------6-----9----| Twqice
--7--7--7--7--7--7--7--7--7--7--7--7--7--7--7--7--|--7--7--7--7--7--7--7--7-------------|
--------------------------------------------------|-------------------------------------|

|------------------------------------------|------------------------------------------|
|------------------------9-9-9-9-----------|--------9-9-------------------------------|
|--------------9-9-11-11---------11-11-9-9-|--11-11-----11-11-9-9-11-11-9-9-----------|
|--11-11-11-11-----------------------------|--------------------------------11-11-9-9-|
|------------------------------------------|------------------------------------------|
|------------------------------------------|------------------------------------------|

|------------------------------------------|------------------------------------------|
|------------------------9-9-9-9-------9-9-|--12-12-9-9-------------------------------|
|--------------9-9-11-11---------11-11-----|------------11-11-9-9-11-11-9-9-----------| REPEAT
|--11-11-11-11-----------------------------|--------------------------------11-11-9-9-| Twice
|------------------------------------------|------------------------------------------|
|------------------------------------------|------------------------------------------|

[D]: Bridge

|-------------------------------|----------------------------------|
|-------------------------------|----------------------------------|
|--9----------------------------|----------------------------------|
|--9------------------6---------|-7-------6----------------6-------|
|--7--7-7-7-7-9-7-7-7----7-7-7--|---7-7-7----7-7-7-9-7-7-7---7-7-7-|
|-------------------------------|----------------------------------|

|-----------------------------|----------------------------------|
|-----------------------------|----------------------------------|
|--9--------------------------|----------------------------------|
|--9------------------6-------|-7-------6----------------6-------|
|--7--7-7-7-7-9-7-7-7---7-7-7-|---7-7-7----7-7-7-9-7-7-7---7-7-7-|
|-----------------------------|----------------------------------|

|-----------------------------|----------------------------------|
|-----------------------------|----------------------------------|
|--6--------------------------|----------------------------------|
|--6--------------------------|--4-------------------------------|
|--4--4-4-4-4-6-4-4-4-7-4-4-4-|----4-4-4-7-4-4-4-6-4-4-4-7-4-4-4-|
|-----------------------------|----------------------------------|

|-----------------------------|------------------------|
|-----------------------------|------------------------|
|--6--------------------------|------------------4--4--|
|--6--------------------------|--4---------------4--4--|
|--4--4-4-4-4-6-4-4-4-7-4-4-4-|----4-4-4-7-4-4-4-2--2--|
|-----------------------------|------------------------|

|--------------------|---------------------|-------------------|--------------|
|--------------------|---------------------|-------------------|--------------|
|--6-6---------------|---------------------|--6-6--------------|--------2--4--|
|--4-4---------------|----------4--2-------|--4-4--------------|--------2--4--|
|-------2-4------7-7-|--2-4-----2--0--4----|--------2-4----7-7-|-2-4----0--2--|
|-------0-2---0--5-5-|--0-2--0--------2--0-|--------0-2-0--5-5-|-0-2--0-------|

[E]:    Coda

Guitar 1: (All effects off and slight PM [Used more as accent])
|--------------------------------------------------|--------------------------------------------------|
|--------------------------------------------------|--------------------------------------------------|
|--------------------------------------------------|--------------------------------------------------|
|--------------------4--4--6--6--6--6--4--4--------|--4--4--6--6--4--4--------4--4--------------------|
|--4--4--4--4--7--7--------------------------7--7--|--------------------7--7--------7--7--4--4--------|
|--------------------------------------------------|--------------------------------------------7--7--|

|--------------------------------------------------|--------------------------------------------------|
|--------------------------------------------------|--------------------------------------------------|
|--------------------------------------------------|--------------------------------------------------|
|--------------------4--4--6--6--6--6--4--4--------|--4--4--6--6--4--4--------4--4--------------------|
|--4--4--4--4--7--7--------------------------7--7--|--------------------7--7--------7--7--------------|
|--------------------------------------------------|--------------------------------------7--7--7--7--|

|--------------------------------------------------|--------------------------------------------------|
|--------------------------------------------------|--------------------------------------------------|
|--------------------------------------------------|--4--4--------------------------------------------|
|--------------------4--4--6--6--6--6--4--4--6--6--|--------6--6--4--4--------4--4--------------------|
|--4--4--4--4--7--7--------------------------------|--------------------7--7--------7--7--4--4--------|
|--------------------------------------------------|--------------------------------------------7--7--|


|--------------------------------------------------|--------------------------------------------------|
|--------------------------------------------------|--------------------------------------------------|
|--------------------------------------------------|--------------------------------------------------|
|--------------------4--4--6--6--6--6--4--4--------|--4--4--6--6--4--4--------4--4--------------------|
|--4--4--4--4--7--7--------------------------7--7--|--------------------7--7--------7--7--------------|
|--------------------------------------------------|--------------------------------------7--7--7--7--|

|--------------------------------------------------|--------------------------------------------------|
|--------------------------------------------------|--------------------------------------------------|
|--------------------------------------------------|--------------------------------------------------|
|--------------------6--6--8--8--8--8--6--6--------|--6--6--8--8--6--6--------6--6--------------------|
|--6--6--6--6--9--9--------------------------9--9--|--------------------9--9--------9--9--6--6--------|
|--------------------------------------------------|--------------------------------------------9--9--|

|--------------------------------------------------|--------------------------------------------------|
|--------------------------------------------------|--------------------------------------------------|
|--------------------------------------------------|--------------------------------------------------|
|--------------------6--6--8--8--8--8--6--6--------|--6--6--8--8--6--6--------6--6--------------------|
|--6--6--6--6--9--9--------------------------9--9--|--------------------9--9--------9--9--------------|
|--------------------------------------------------|--------------------------------------9--9--9--9--|

|--------------------------------------------------|--------------------------------------------------|
|--------------------------------------------------|--------------------------------------------------|
|--------------------------------------------------|--6--6--------------------------------------------|
|--------------------6--6--8--8--8--8--6--6--8--8--|--------8--8--6--6--------6--6--------------------|
|--6--6--6--6--9--9--------------------------------|--------------------9--9--------9--9--6--6--------|
|--------------------------------------------------|--------------------------------------------9--9--|

|--------------------------------------------------|--------------------------------------|
|--------------------------------------------------|--------------------------------------|
|--------------------------------------------------|--------------------------------------|
|--------------------6--6--8--8--8--8--6--6--------|--6--6--6--------6--------6--------6--|
|--6--6--6--6--9--9--------------------------9--9--|--------4--4--4--4--4--4--4--4--4--4--|
|--------------------------------------------------|--------------------------------------|

Guitar 2: (Chorus effect on and slight PM [Used more as accent])

|--------------------------------------------------|--------------------------------------------------|
|--------------------------9--9--9--9--------------|--------9--9--------------------------------------|
|--------------9--9--11-11-------------11-11-9--9--|--11-11-------11-11-9--9--11-11-9--9--------------|
|--11-11-11-11-------------------------------------|--------------------------------------11-11-9--9--|
|--------------------------------------------------|--------------------------------------------------|
|--------------------------------------------------|--------------------------------------------------|

|--------------------------------------------------|--------------------------------------------------|
|--------------------------9--9--9--9--------------|--------9--9--------------------------------------|
|--------------9--9--11-11-------------11-11-9--9--|--11-11-------11-11-9--9--11-11-9--9--------------|
|--11-11-11-11-------------------------------------|--------------------------------------9--9--9--9--|
|--------------------------------------------------|--------------------------------------------------|
|--------------------------------------------------|--------------------------------------------------|

|--------------------------------------------------|--------------------------------------------------|
|--------------------------9--9--9--9--------9--9--|--12-12-9--9--------------------------------------|
|--------------9--9--11-11-------------11-11-------|--------------11-11-9--9--11-11-9--9--------------|
|--11-11-11-11-------------------------------------|--------------------------------------11-11-9--9--|
|--------------------------------------------------|--------------------------------------------------|
|--------------------------------------------------|--------------------------------------------------|

|--------------------------------------------------|--------------------------------------------------|
|--------------------------9--9--9--9--------------|--------9--9--------------------------------------|
|--------------9--9--11-11-------------11-11-9--9--|--11-11-------11-11-9--9--11-11-9--9--------------|
|--11-11-11-11-------------------------------------|--------------------------------------9-9-9-9-----|
|--------------------------------------------------|--------------------------------------------------|
|--------------------------------------------------|--------------------------------------------------|

|--------------------------------------------------|--------------------------------------------------|
|--------------------------11-11-11-11-------------|--------11-11-------------------------------------|
|--------------11-11-13-13-------------13-13-11-11-|--13-13-------13-13-11-11-13-13-11-11-------------|
|--13-13-13-13-------------------------------------|--------------------------------------13-13-11-11-|
|--------------------------------------------------|--------------------------------------------------|
|--------------------------------------------------|--------------------------------------------------|

|--------------------------------------------------|--------------------------------------------------|
|--------------------------11-11-11-11-------------|--------11-11-------------------------------------|
|--------------11-11-13-13-------------13-13-11-11-|--13-13-------13-13-11-11-13-13-11-11-------------|
|--13-13-13-13-------------------------------------|--------------------------------------11-11-11-11-|
|--------------------------------------------------|--------------------------------------------------|
|--------------------------------------------------|--------------------------------------------------|

|--------------------------------------------------|--------------------------------------------------|
|--------------------------11-11-11-11-------11-11-|--14-14-11-11-------------------------------------|
|--------------11-11-13-13-------------13-13-------|--------------13-13-11-11-13-13-11-11-------------|
|--13-13-13-13-------------------------------------|--------------------------------------13-13-11-11-|
|--------------------------------------------------|--------------------------------------------------|
|--------------------------------------------------|--------------------------------------------------|

|--------------------------------------------------|------------------------------------------|
|--------------------------11-11-11-11-------------|--------14--------14--------14--------14--|
|--------------11-11-13-13-------------13-13-11-11-|--13-13-10--10-10-10--10-10-10--10-10-10--|
|--13-13-13-13-------------------------------------|------------------------------------------|
|--------------------------------------------------|------------------------------------------|
|--------------------------------------------------|------------------------------------------|

|------------------------------------------|------------------------------------------|
|------------------------9-9-9-9-----------|--------9-9-------------------------------|
|--------------9-9-11-11---------11-11-9-9-|--11-11-----11-11-9-9-11-11-9-9-----------|
|--11-11-11-11-----------------------------|--------------------------------11-11-9-9-|
|------------------------------------------|------------------------------------------|
|------------------------------------------|------------------------------------------|

|------------------------------------------|------------------------------------------|
|------------------------9-9-9-9-------9-9-|--12-12-9-9-------------------------------|
|--------------9-9-11-11---------11-11-----|------------11-11-9-9-11-11-9-9-----------|
|--11-11-11-11-----------------------------|--------------------------------11-11-9-9-|
|------------------------------------------|------------------------------------------|
|------------------------------------------|------------------------------------------|

|------------------------------------------|------------------------------------------|
|------------------------9-9-9-9-----------|--------9-9-------------------------------|
|--------------9-9-11-11---------11-11-9-9-|--11-11-----11-11-9-9-11-11-9-9-----------|
|--11-11-11-11-----------------------------|--------------------------------11-11-9-9-|
|------------------------------------------|------------------------------------------|
|------------------------------------------|------------------------------------------|

|------------------------------------------|------------------------------------------|
|------------------------9-9-9-9-------9-9-|--12-12-9-9-------------------------------|
|--------------9-9-11-11---------11-11-----|------------11-11-9-9-11-11-9-9-----------|
|--11-11-11-11-----------------------------|--------------------------------11-11-9-9-|
|------------------------------------------|------------------------------------------|
|------------------------------------------|------------------------------------------|

[F]: Solo (Rhythm)

Repeat this four times, the first three are as below
|--------------------------------------------|-------------------------|-----------------------|
|--------------------------------------------|-------------------------|-----------------------|
|--6--------------------------|-9-8--6--4--2-|-------------------------|-2----------4-------6--|
|--4--4-4-4-4-4-4-4-4-4-4-4-4-|-7-6--4--2--0-|-0-0-0-0-0-0-0-0-0-0-0-0-|-2----------4-------4--|
|--------------------------------------------|-------------------------|-0--0-0-0-0-2--2-2-----|
|--------------------------------------------|-------------------------|-----------------------|

|--------------------------------------------|-------------------------|-----------------------|
|--------------------------------------------|-------------------------|-----------------------|
|--6--------------------------|-9-8--6--4--2-|-------------------------|-2----------4-------6--|
|--4--4-4-4-4-4-4-4-4-4-4-4-4-|-7-6--4--2--0-|-0-0-0-0-0-0-0-0-0-0-0-0-|-2----------4-------4--|
|--------------------------------------------|-------------------------|-0--0-0-0-0-2--2-2-----|
|--------------------------------------------|-------------------------|-----------------------|

|--------------------------------------------|-------------------------|-----------------------|
|--------------------------------------------|-------------------------|-----------------------|
|--6--------------------------|-9-8--6--4--2-|-------------------------|-2----------4-------6--|
|--4--4-4-4-4-4-4-4-4-4-4-4-4-|-7-6--4--2--0-|-0-0-0-0-0-0-0-0-0-0-0-0-|-2----------4-------4--|
|--------------------------------------------|-------------------------|-0--0-0-0-0-2--2-2-----|
|--------------------------------------------|-------------------------|-----------------------|

|--------------------------------------------|-------------------------|-----------------------|
|--------------------------------------------|-------------------------|-----------------------|
|--6--------------------------|-9-8--6--4--2-|-------------------------|-2----------4----------|
|--4--4-4-4-4-4-4-4-4-4-4-4-4-|-7-6--4--2--0-|-0-0-0-0-0-0-0-0-0-0-0-0-|-2----------4----------|
|--------------------------------------------|-------------------------|-0--0-0-0-0-2--2-2-2-2-|
|--------------------------------------------|-------------------------|-----------------------|

|-------------|-----------------|-------------|-----------------|
|-------------|-----------------|-------------|-----------------|
|-6-----------|-------2----4----|-6-----------|-------4----2----| REPEAT X4
|-6-----2-----|-4-----2----4----|-6-----2-----|-4-----4----2----| FOUR TIMES
|-4-----2-----|-4-----0----2----|-4-----2-----|-4-----2----0----|
|-------0-----|-2---------------|-------0-----|-2---------------|

[G]: Outro 1

Guitar 1 (Lots of reverb to create a wall of sound effect)
|-----||-----||-----||-----|
|-----||-----||-----||-----|
|--6--||--2--||-----||--4--|
|--6--||--2--||--2--||--4--|
|--4--||--0--||--2--||--2--|
|-----||-----||--0--||-----|

Guitar 2 (Slight Reverb)
|---------------------------------p--------|------------------------------------------|
|------------------------9-9-9-9-----------|--------9-9-------------------------------|
|--------------9-9-11-11---------11-11-9-9-|--11-11-----11-11-9-9-11-11-9-9-----------|
|--11-11-11-11-----------------------------|--------------------------------11-11-9-9-|
|------------------------------------------|------------------------------------------|
|------------------------------------------|------------------------------------------|

|------------------------------------------|------------------------------------------|
|------------------------9-9-9-9-------9-9-|--12-12-9-9-------------------------------|
|--------------9-9-11-11---------11-11-----|------------11-11-9-9-11-11-9-9-----------| 
Repeat whole phrase
|--11-11-11-11-----------------------------|--------------------------------11-11-9-9-| 
Four total times
|------------------------------------------|------------------------------------------|
|------------------------------------------|------------------------------------------|

[H] Outro 2

|------------------------------------------------|
|-------------Rerpeat Four Times-----------------|
|-o-4--4-----------4-----------4-----------4---o-|
|-o-4--4-----------4-----------4-----------4---o-|
|---2--2--2--2--2--2--2--2--2--2--2--2--2--2--2--|
|------------------------------------------------|

|------------------|-----------------|-------------|--------|
|------------------|-----------------|-------------|--------|
|------------------|-----------------|-------------|--------|
|--6-6-4-6---4-6-6-|-4-6---4-6-4-6-4-|--6----6--6--|--6--4--|
|--4-4-2-4---2-4-4-|-2-4---2-4-2-4-2-|--4----4--4--|--4--2--|
|------------------|-----------------|-------------|--------|

Song Structure

A x1
B x4
C x1
B x2
C (First 8 bars)
D x1
B x2
E x1
F x1
C x1
D x1
B x2
G X1
B X2
H X1

            
            
Suggest correction
Creating personal tab
Creating personal tab
You can edit any tab online and save it as your Personal.

You can edit, replace or remove any tab part or add personal notes – all changes will be seen only by you.

Personal tabs can be accessed anytime from any device, even offline.
Learn more »
Give kudos to tab author, rate the tab!
1 2 3 4 5
comments
print report bad tab
guest
You may want to rate the tab now too:
select rating
Wanna post a correction for this tab? Suggest correction