Oops, an error
Loading. Please wait.

Satan Tab

version 1
version 1

Whole song

Interactive

737 views 1 this week
no commentswrite comment
1 2 3 4 5
please rate
add to favorites
launch autoscroll
font size
0
reset
how to read this tab
guitar tuner
Tab Pro tools
  • play this tab
  • loop segment
  • change instrument
  • show fretboard
  • metronome
×
Best way to learn
"Satan"
Autoscroll
slow
fast
+/-
esc
set tempo
stop
Contributor
Difficulty
intermediate
Running Wild- Satan

Inrto
D -------------------------------------------|
A -------------------------------------------|
F -------4-----------4-----------4-----7=7-7-|
C -0-4h5---5p4-0-4h5---5p4-0-4h5---5p4-7-7-7-|
G -------------------------------------5-5-5-|
D -------------------------------------------|

Intro 2
D--------------------------------------------|
A--------------------------------------------|
F -------------------------------------------|
C -------4-----------4-----------4-----7=7-7-|
G -0-4h5---5p4-0-4h5---5p4-0-4h5---5p4-7-7-7-|
D -------------------------------------5-5-5-|

Fill
D ---------|
A ---------|
F ---------|
C -5--4--7-|
G -5--4--7-|
D -3--2--5-|

Riff 1
D --------------------------------------------------|
A --------------------------------------------------|
F --------------------------------------------------|
C --------------------------------------------------|
G ------------------7-9-7-----------------4/5/4-7-5-|
D -2-2-2-2-2-2-2-2--5-7-5-0-0-0-0-0-0-0-0-2/3/2-5-3-|

Riff 2
D ------------------|
A ------------------|
F ----2--4--5--6--7-|
C -5--2--4--5--6--7-|
G -5--0--2--3--4--5-|
D -2----------------|

Riff 3
D -------------------------------------------------|
A -------------------------------------------------|
F -6-----6-----6-----6-----6-----6-----6-----6-----|
C -4-----4-----4-----4-6-9-4-----4-----4-----4-9-6-|
G ---0-0---0-0---0-0---4-7---0-0---0-0---0-0---7-4-|
D -------------------------------------------------|

Harmony
D ------------------------------------------------------------|
A ------------------------------------------------------------|
F ----2--4--6--2-----2--4--9--6-----2--4--6--2-----2--4--4--2-|
C -4--2--4--6--2--4--2--4--9--6--4--2--4--6--2--4--2--4--4--2-|
G -4--0--2--4--0--4--0--2--7--4--4--0--2--4--0--4--0--2--2--0-|
D -2--------------2--------------2--------------2-------------|

Outro
D -------------------------------|
A -------------------------------|
F -------------------------------|
C -------------------------------|
G ---------------------------2-4-|
D -2-222-222-222-222-222-222-0-2-|

Order
Introx1
Intro 2 x1
Intro   x1
Intro 2 x1
Intro   x1
Intro 2 x1
Fill    x1
Riff 1  x6
Riff 2  x1
Riff 3  x2
Riff 1  x6
Riff 2  x1
Riff 3  x2
Harmony x2
Riff 1  x6
Riff 2  x1
Riff 3  x2
Riff 1  x6
Riff 2  x1
Riff 3  x2
Outro   x1
comments
We did not receive enough feedback on this tab! Please rate:
print report bad tab
1 2 3 4 5
I want to post or [tab]
guest
You may want to rate the tab now too:
select rating
Please do not post tabs as comments. Select "correction" instead!