Oops, an error
Loading. Please wait.

Eirinn Tab

366 views 1 this week
no commentswrite comment
1 2 3 4 5
please rate
add to favorites
launch autoscroll
font size
0
reset
how to read this tab
guitar tuner
Autoscroll
slow
fast
+/-
esc
set tempo
stop
Help us to improve Ultimate-Guitar.com Take our survey!
×
Author
-------------------------------------------------------------------------------
                             Eirinn - Runrig  (Intro & Melody)
-------------------------------------------------------------------------------
Tabbed by: TreeInThePark
Tuning: Standard Tuning

Intro (Play twice)
e|-------8-|-8-7-5-7-5---|-------------|-------------|
B|-5-8-8---|-----------8-|-5-8-8-5-3-1-|-3-1-1---1-3-|
G|---------|-------------|-------------|-------------|
D|---------|-------------|-------------|-------------|
A|---------|-------------|-------------|-------------|
E|---------|-------------|-------------|-------------|

Verse
e|---------8-|-8-12-10-8-|-8-7-5~5-3-|-5-8~8-------|
B|-----------|-----------|-----------|-------5-3-1~|
G|-----------|-----------|-----------|-------------|
D|-----------|-----------|-----------|-------------|
A|-----------|-----------|-----------|-------------|
E|-----------|-----------|-----------|-------------|

e|---------8-|-8-12-10-8-|-8-7~7-5-3-|-5-8~8-------|
B|~1---------|-----------|-----------|-------5-3-5~|
G|-----------|-----------|-----------|-------------|
D|-----------|-----------|-----------|-------------|
A|-----------|-----------|-----------|-------------|
E|-----------|-----------|-----------|-------------|

e|---------8-|-8-10/12-10-8-|-8-7-5~5-8-8-|-10-10-7-7-5-3-|
B|~5-5~5-----|--------------|-------------|---------------|
G|-----------|--------------|-------------|---------------|
D|-----------|--------------|-------------|---------------|
A|-----------|--------------|-------------|---------------|
E|-----------|--------------|-------------|---------------|

e|-------8-|-8-7-5-3-|-5-8-----|---------|-----8-8-|
B|-3-------|---------|-----5-1-|-1-5-3-1-|-1-------|
G|---------|---------|---------|---------|---------|
D|---------|---------|---------|---------|---------|
A|---------|---------|---------|---------|---------|
E|---------|---------|---------|---------|---------|

Chorus
  C     G   Am    F   C     G   C
e|---------|---------|---------|---------|
B|---------|---------|---------|---------|
G|---------|---------|---------|---------|
D|---------|---------|---------|---------|
A|---------|---------|---------|---------|
E|---------|---------|---------|---------|

N.B. ~ indicates where notes are tied together.

The chords and lyrics have been submitted by syyanna, check it out!
Suggest correction
Give kudos to tab author, rate the tab!
1 2 3 4 5
comments
print report bad tab
guest
You may want to rate the tab now too:
select rating
Wanna post a correction for this tab? Suggest correction