Oops, an error
Loading. Please wait.

2112 Bass Tab

version 1
version 1

Whole song

Interactive

by Rush
39,657 views 69 this week
9 commentsread comments
1 2 3 4 5
x 27
add to favorites
launch autoscroll
font size
0
reset
guitar tuner
Autoscroll
slow
fast
+/-
esc
set tempo
stop
Help us to improve Ultimate-Guitar.com Take our survey!
×
NOTES:

1. Dont expect this to be perfect. Most of it is right (or at least close)
The rest is how I play it ....

2. Learn the Overture first. Most of the riffs in the Overture appear in the
rest of the song so once you know that the rest is easier.

3. Mail any comments/changes to me (adam@micromuse.co.uk) and I'll change them

4. If you want the original BTC files I'll mail them to you if you ask me.


"2112" I - Overture
===================

                                                                       
     e   q H     Q e e     w   q h e e     q Q e     q h|e e   q h|e e  
G|-----|-----|---------|-----|---------|---------|-----------|---------|
D|4:---|---R-|5:-R-----|4:---|---R-----|3:---R---|4:---R-----|---R-----|
A|4:---|-----|8:---3---|4:-5-|-3---0-0-|4:-0-----|4:-------3-|---------|
E|---0-|-5---|-------3-|-----|---------|-------0-|---5-------|-3-----0-|

                                                                       
     q h|e e e   q e e q e     q h|e e   q h|e e     e h|e e e     H e  
G|-------------|-----------|-----------|---------|-------------|-------|
D|9:---R-------|-----------|4:---R-----|---R-----|9:---R-------|7:-----|
A|8:-------3---|-5-3---5---|4:-------3-|---------|8:-------3---|8:-5---|
E|---5-------3-|-----3---0-|---5-------|-3-----0-|---5-------3-|-----0-|

                                                                           
     q h|e e   q h|e e     q e e q e e e     q e e q e     e e e e e e e e  
G|-----------|---------|-----------------|-------------|---4-----------4---|
D|4:---R-----|---R-----|9:---R-----R-----|7:-----------|4:---R-7-R-5-R---R-|
A|4:-------3-|---------|8:-------5---3---|8:-5-3---5-5-|4:-----------------|
E|---5-------|-3-----0-|---5---3-------3-|-------3-----|-------------------|

                                                                               
     Q e     w   |w   e e e e e e e e     Q e     w   |H e   e   w   w   w   w  
G|-------|-----|----|-----------------|-------|-----|----------|---|---|---|---|
D|2:-----|4:---|----|-5-R-7-R-5-R-4-R-|2:-----|4:---|--------R-|-R-|-R-|-R-|-R-|
A|4:-5-0-|4:-5-|--5-|-----------------|4:-7-4-|4:---|----7\X---|---|---|---|---|
E|-------|-----|----|-----------------|-------|---5-|--5-------|---|---|---|---|

                                                                     
   e e e e e e e e   e e e e e e e e   e e e e q e e   e e e e e q e  
G|-----------------|-----------------|---------------|---------------|
D|-----------------|-----------------|---------------|---------------|
A|-2-1-2-1-2-1-2-0-|-------------5-4-|---------7-5-4-|-2-1-2-1-2-5-5-|
E|-----------------|-3-2-3-2-3-2-----|-5-4-5-4-------|---------------|

                                                                     
   e e e e e e e e   e e e e e e e e   e e e e q e e   e e e e e q e  
G|-----------------|-----------------|---------------|---------------|
D|-----------------|-----------------|---------------|---------------|
A|-2-1-2-1-2-1-2-0-|-------------5-4-|---------7-5-4-|-2-1-2-1-2-5-5-|
E|-----------------|-3-2-3-2-3-2-----|-5-4-5-4-------|---------------|

                                                                      
   q q q e e   q q q e e   q q q e e   e e e e e e e e   |w   |w   |w  
G|-----------|-----------|-----------|-----------------|----|----|----|
D|-----------|-----------|-----------|-----------------|----|----|----|
A|-2-2-2-2-0-|-------5-4-|-----7-5-4-|-2---------------|----|----|----|
E|-----------|-3-3-3-----|-5-5-------|---0-2-3-5-3-0-5-|--5-|--5-|--5-|

                                                                        
   e e e e e e q   |w   |w   |w   e e e e e e q   |e e Q e q   |H s s e  
G|---------------|----|----|----|---------------|------------|----------|
D|---------------|----|----|----|---------------|--------7-7-|--7-7H9P7-|
A|---------------|----|----|----|---------------|----4-4-----|----------|
E|-0-2-3-5-3-0-5-|--5-|--5-|--5-|-0-2-3-5-3-0-5-|--5---------|----------|

                                                                               
   |H s s e   e e e e e e q   |e e Q e q   |H s s e   |H s s e     e e e e e e  
G|----------|---------------|------------|----------|----------|---------------|
D|--7-7H9P7-|---------------|--------7-7-|--7-7H9P7-|--7-7H9P7-|3:-------------|
A|----------|---------------|----4-4-----|----------|----------|4:-------------|
E|----------|-0-2-3-5-3-0-5-|--5---------|----------|----------|---0-2-3-5-3-0-|

                                                                               
     q e e q e e   H q   h e E E   h e E E   h e E E   E E e e e q     h e E E  
G|---------------|-----|---------|---------|---------|---------------|---------|
D|4:---R-----R-9-|-9-R-|---R-----|---R-----|---R-----|---------R-9\X-|---R-----|
A|4:-2---6-6-----|-----|-2---2-0-|---------|---------|-5-4-0-2-------|-2---2-0-|
E|---------------|-----|---------|-3---2-3-|-5---3-5-|---------------|---------|

                                                                         
   h e E E   h e E E     E E e    e H e   |e H e   |e H|e   e Q q q    w  
G|---------|---------|---------|--------|--------|--------|----------|---|
D|---R-----|---R-----|2:-------|*---R---|----R---|----R---|-R-------*|---|
A|---------|---------|4:-5-4-0-|*-2---2-|--2---2-|--2-----|---5---7-*|---|
E|-3---2-3-|-5---3-5-|---------|--------|--------|--------|-----5----|-5-|

                                                                  
   h|Q e   h|Q e   e e e e E E e    h q e e   Q e e e e e   Q e h  
G|-------|-------|---------------|----------|-------------|-------|
D|-------|-------|-------R-------|*---2-----|-------------|-------|
A|-3-3-5-|-------|---------3---3-|*-0---0-2-|-3-2-3-2-----|-------|
E|-------|-1-1-1-|-1-1-1-----3---|----------|---------3-2-|-1-0-1-|

                                                                      
   e e q E E e 3  h q e e   Q e e e e e   h|e e e e   e e e e e e e e  
G|--------------|---------|-------------|-----------|-----------------|
D|-------------*|---2-----|-------------|-----------|-----------R---R-|
A|-------3---3-*|-0---0-2-|-3-2-3-2-----|-----------|-------------3---|
E|-1-0-1---3----|---------|---------3-2-|-1-1-1-1-1-|-1-1-1-1-1-------|

                                                             
   e s e e s e e e e   e s e e s e e e e   e s e e s e e e e  
G|-------------------|-------------------|-------------------|
D|-------------R---R-|-------------R---R-|-------------R---R-|
A|-2-2-2-2-2-2---5---|-2-2-2-2-2-2-------|-2-2-2-2-2-2---5---|
E|-------------------|---------------3---|-------------------|

                                                             
   e s e e s e e e e   e s e e s e e e e   e s e e s e e e e  
G|-------------------|-------------------|-------------------|
D|-------------R---R-|-------------R---R-|-------------R---R-|
A|-2-2-2-2-2-2-------|-2-2-2-2-2-2---5---|-2-2-2-2-2-2-------|
E|---------------3---|-------------------|---------------3---|

                                                                             
   e s e e s e e e e   e s e e s e e e e   e e s s e e e s s e   E E E E e e  
G|-------------------|-------------------|---------------------|-------------|
D|-------------R---R-|-------------------|-R---------R---------|-----------R-|
A|-2-2-2-2-2-2---5---|-2-2-2-2-2-2-4-5-6-|---7-----7---5-----5-|-3-2-3-2-3---|
E|-------------------|-------------------|-----7-7-------5-5---|-------------|

                                                                             
   e s e e s e e e e   e s e e s e e e e   e e s s e e e s s e   E E E E e e  
G|-------------------|-------------------|---------------------|---------5-4-|
D|-------------R---R-|-------------R---R-|-R---------R---------|-----5-4-----|
A|-2-2-2-2-2-2---5---|-2-2-2-2-2-2-------|---7-----7---5-----5-|-3-2---------|
E|-------------------|---------------3---|-----7-7-------5-5---|-------------|

                                                             
   e s e e s e e e e   e s e e s e e e e   e s e e s e e e e  
G|-------------------|-------------------|-------------------|
D|-------------R---R-|-------------R---R-|-------------R---R-|
A|-2-2-2-2-2-2---5---|-2-2-2-2-2-2-------|-2-2-2-2-2-2---5---|
E|-------------------|---------------3---|-------------------|

                                                                 
   e s e e s e e e e   s s s e e s e e e e   s s s e e s e e e e  
G|-------------------|---------------------|---------------------|
D|-------------R---R-|-------------------2-|---------------------|
A|-2-2-2-2-2-2-------|-2-2-2-2-2-2-2-4-5---|-2-2-2-2-2-2-2-------|
E|---------------3---|---------------------|---------------5-3-2-|

                                                                     
   s s s e e s e e e e     s s s e e s e e     h|Q e e     q e e q e  
G|---------------------|-------------------|-----------|-------------|
D|-------------------2-|3:-----------------|9:---------|7:-----------|
A|-2-2-2-2-2-2-2-4-5---|4:-2-2-2-2-2-2-2-2-|8:-----3---|8:-5-3---5---|
E|---------------------|-------------------|---3-----3-|-------3---3-|

                                                                        
     q s s s s q s s s s   q s s s s q s s s s   w   |H q   w   w   h|Q  
G|-----------------------|---------------------|---|------|---|---|-----|
D|4:---------------------|---------------------|---|----R-|-R-|-R-|-R-R-|
A|4:---------------------|---------------------|---|------|---|---|-----|
E|---0-0-0-0-0-0-0-0-0-0-|-0-0-0-0-0-0-0-0-0-0-|-0-|--0---|---|---|-----|


"2112" II - The Temples of Syrinx
=================================

                                                                     
   e      E s e e E s e e   E s e e e q e   E s e e E s e e   h|Q e   
G|---|--------------------|---------------|-----------------|--------|
D|---|*4:-----------------|---------------|-----------------|-------*|
A|---|*4:---------------3-|-------3---5---|---------------3-|-------*|
E|-0-|----5-5-5-0-5-5-5---|-3-3-3---3---0-|-5-5-5-0-5-5-5---|-3---0--|

                                                                               
   E s e e E s e e   E s e e e q e   E s e e E s e e   h|Q e   E s e e E s e e  
G|-----------------|---------------|-----------------|-------|-----------------|
D|-----------------|---------------|-----------------|-------|-----------------|
A|---------------3-|-------3---5---|---------------3-|-------|---------------3-|
E|-5-5-5-0-5-5-5---|-3-3-3---3---0-|-5-5-5-0-5-5-5---|-3---0-|-5-5-5-0-5-5-5---|

                                                                         
   E s e e e q e   E s e e E s e e   e e e e e e e e    |e e e e e e e e  
G|---------------|-----------------|-----------------|-------------------|
D|---------------|-----------------|-----------------|*------------------|
A|-------3---5---|---------------3-|---------------2-|*--2-1-2-1-2-------|
E|-3-3-3---3---0-|-5-5-5-0-5-5-5---|-3-0-2-3-5-3-0---|-------------0-2-3-|

                                                                              
   |e e e e e e e e   |e e e e e e e e   |e e e e e e e e 3  |e e e e e e e e  
G|------------------|------------------|-------------------|------------------|
D|------------------|------------------|------------------*|------------------|
A|------------------|----------------2-|--2-------------2-*|--2-1-2-1-2-------|
E|--3-2-3-2-3-2-3-5-|--5-4-5-4-5-4-5---|----0-2-3-5-3-0----|------------0-2-3-|

                                                                                
   |e e e e e e e e   |e e e e e e e e   |e e e e e e e e   s s s e e s e e e e  
G|------------------|------------------|------------------|---------------------|
D|------------------|------------------|----------------R-|---------------R---R-|
A|------------------|----------------2-|--2-----------5---|-2-2-2-2-2-2-2---5---|
E|--3-2-3-2-3-2-3-5-|--5-4-5-4-5-4-5---|----0-2-3-5-3-----|---------------------|

                                                                       
   s s s e e s e e e e   s s s e e s e e e e     s s s e e s e e     w  
G|---------------------|---------------------|-------------------|-----|
D|---------------R---R-|---------------R---R-|3:---------------R-|4:---|
A|-2-2-2-2-2-2-2-------|-2-2-2-2-2-2-2---5---|4:-2-2-2-2-2-2-2---|4:---|
E|-----------------3---|---------------------|-------------------|---3-|

                                                                               
   e e e e e e e e   E s e e E s e e   E s e e e q e   E s e e E s e e   h|Q e  
G|-----------------|-----------------|---------------|-----------------|-------|
D|-----------------|-----------------|---------------|-----------------|-------|
A|-----------------|---------------3-|-------3---5---|---------------3-|-------|
E|-3-3-3-3-3-3-3-0-|-5-5-5-0-5-5-5---|-3-3-3---3---0-|-5-5-5-0-5-5-5---|-3---0-|

                                                                       
   E s e e E s e e   E s e e e q e   E s e e E s e e   e e e e e e e e  
G|-----------------|---------------|-----------------|-----------------|
D|-----------------|---------------|-----------------|-----------------|
A|---------------3-|-------3---5---|---------------3-|---------------2-|
E|-5-5-5-0-5-5-5---|-3-3-3---3---0-|-5-5-5-0-5-5-5---|-3-0-2-3-5-3-0---|

                                                                               
    |e e e e e e e e   |e e e e e e e e   |e e e e e e e e   |e e e e e e e e 3 
G|-------------------|------------------|------------------|-------------------|
D|*------------------|------------------|------------------|------------------*|
A|*--2-1-2-1-2-------|------------------|----------------2-|--2-------------2-*|
E|-------------0-2-3-|--3-2-3-2-3-2-3-5-|--5-4-5-4-5-4-5---|----0-2-3-5-3-0----|

                                                                             
   |e e e e e e e e   |e e e e e e e e   |e e e e e e e e   |e e e e e e e e  
G|------------------|------------------|------------------|------------------|
D|------------------|------------------|------------------|----------------R-|
A|--2-1-2-1-2-------|------------------|----------------2-|--2-----------5---|
E|------------0-2-3-|--3-2-3-2-3-2-3-5-|--5-4-5-4-5-4-5---|----0-2-3-5-3-----|

                                                                   
   s s s e e s e e e e   s s s e e s e e e e   s s s e e s e e e e  
G|---------------------|---------------------|---------------------|
D|---------------R---R-|---------------R---R-|---------------R---R-|
A|-2-2-2-2-2-2-2---5---|-2-2-2-2-2-2-2-------|-2-2-2-2-2-2-2---5---|
E|---------------------|-----------------3---|---------------------|

                           
     s s s e e s e e     w  
G|-------------------|-----|
D|3:---------------R-|4:---|
A|4:-2-2-2-2-2-2-2---|4:---|
E|-------------------|---3-|

"2112" III - Discovery
======================

No bass !!! 


"2112" IV - Presentation
========================

                                                                             
     Q e Q e   Q q e e e   Q e q e e   e e e e e e e e   Q e Q e   Q q e e e  
G|-----------|-----------|-----------|-----------------|---------|-----------|
D|4:-------7-|-7-5-4-----|-----------|-R-5-R-4-R-5-----|-------7-|-7-5-4-----|
A|4:---4-4---|-------7-6-|-5---5---5-|-------------5-7-|---4-4---|-------7-6-|
E|---5-------|-----------|---5---5---|-----------------|-5-------|-----------|

                                                                         
   Q e s s e e e   e e e e e e e e   Q e e q e   Q e e e e e   Q e e q e  
G|---------------|-----------------|-----------|-------4-----|-----------|
D|---------------|-R-5-R-4-R-5-----|-----R---R-|-4---R---7---|-----R---R-|
A|-5---5---5---5-|-------------5-7-|-----------|---7-------7-|-----------|
E|---5---5---5---|-----------------|-5-7---7---|-------------|-5-7---7---|

                                                                               
   e q e e e s s e   Q e e q e   Q e e e e e   Q e e q e    e e  e e e e e s s  
G|-9-6-4-----------|-----------|-------4-----|-----------|-11-9----------------|
D|-------R-7-4-----|-----R---R-|-4---R---7---|-----R---R-|------11-9-7---------|
A|-------------7-4-|-----------|---7-------7-|-----------|-------------9-7-----|
E|-----------------|-5-7---7---|-------------|-5-7---7---|-----------------9-7-|

                                                               
    Q e|h   e e e q s s e e 4  Q e Q e   Q q e e e   Q e q e e  
G|--------|------------------|---------|-----------|-----------|
D|*-------|-R-5-4-6-6H7P6---*|-------7-|-7-5-4-----|-----------|
A|*---5---|---------------7-*|---4-4---|-------7-6-|-5---5---5-|
E|--5-----|------------------|-5-------|-----------|---5---5---|

                                                                             
   e e e e e e e e   Q s s e e e e   Q q e e e   Q e q e e   e e e e e e e e  
G|-----------------|---------------|-----------|-----------|-----------------|
D|-R-5-R-4-R-5-----|-------------7-|-7-5-4-----|-----------|-R-5-R-4-R-5-----|
A|-------------5-7-|---4-4-4-4-4---|-------7-6-|-5---5---5-|-------------5-7-|
E|-----------------|-5-------------|-----------|---5---5---|-----------------|

                                                                         
   Q e Q s s   e q q e e e   Q e e e q   e e e e e e e e   e e e e Q s s  
G|-----------|-------------|-----------|-----------------|---------------|
D|-------7-7-|-7-9-7-5-4---|-------R---|-R-5-R-4-R-5-----|-----------7-7-|
A|---4-4-----|-----------7-|-5---5---5-|-------------5-7-|-------4-4-----|
E|-5---------|-------------|---5-------|-----------------|-5-5-5---------|

                                                                               
   e s s e s s e e e e   Q e q e e   e e e e e e e e   Q e e q e   Q e e e e e  
G|---------------------|-----------|-----------------|-----------|-------4-----|
D|-7-7-7-7-5-5-5-4-----|-----------|-R-5-R-4-R-5-----|-----R---R-|-4---R---7---|
A|-----------------7-6-|-5---5---5-|-------------5-7-|-----------|---7-------7-|
E|---------------------|---5---5---|-----------------|-5-7---7---|-------------|

                                                                        
   Q e e q e   e q e e e s s e   Q e e q e   Q e e e e e   Q e e q s  s  
G|-----------|-9-6-4-----------|-----------|-------4-----|---------9H11-|
D|-----R---R-|-------R-7-4-----|-----R---R-|-4---R---7---|-----R--------|
A|-----------|-------------7-4-|-----------|---7-------7-|--------------|
E|-5-7---7---|-----------------|-5-7---7---|-------------|-5-7---7------|

                                                                            
    e  e e e s s e e s s    Q e|h   e e e q s s e e 4   Q e Q e   Q q e e e  
G|-P9--------------------|--------|------------------|----------|-----------|
D|----11-9-7-9P7---------|*-------|-R-5-4-6-6H7P6---*|*-------7-|-7-5-4-----|
A|---------------9-7-----|*---5---|---------------7-*|*---4-4---|-------7-6-|
E|-------------------9-7-|--5-----|------------------|--5-------|-----------|

                                                                          
   Q e q e e   e e e e e e e e 3  Q e Q e   Q q e e e   Q e q e e   e H e  
G|-----------|------------------|---------|-----------|-----------|-------|
D|-----------|-R-5-R-4-R-5-----*|-------7-|-7-5-4-----|-----------|---R---|
A|-5---5---5-|-------------5-7-*|---4-4---|-------7-6-|-5---5---5-|-----2-|
E|---5---5---|------------------|-5-------|-----------|---5---5---|-3-----|

                                                                               
    |e e e e e e e e   |e e e e e e e e   |e e e e e e e e   |e e e e e e e e 7 
G|-------------------|------------------|------------------|-------------------|
D|*------------------|------------------|------------------|------------------*|
A|*--2-1-2-1-2-------|------------------|----------------2-|--2-------------2-*|
E|-------------0-2-3-|--3-2-3-2-3-2-3-5-|--5-4-5-4-5-4-5---|----0-2-3-5-3-0----|

                                                                            
   e e e e e e e e   |e e e e e e e e   |e e e e e e e e   |e e e e e e e e  
G|-----------------|------------------|------------------|------------------|
D|-----------------|------------------|------------------|------------------|
A|-2-1-2-1-2-------|------------------|----------------2-|--2-------------5-|
E|-----------0-2-3-|--3-2-3-2-3-2-3-5-|--5-4-5-4-5-4-5---|----0-2-3-5-3-0---|

      
   |w  
G|----|
D|----|
A|--5-|
E|----|

"2112" V - Oracle: The Dream
============================

                                                                                
   w   |w   |w   |w   |w   |w   |w   |w   |w   |w   |w   |w   |w   |w   |w   |w  
G|---|----|----|----|----|----|----|----|----|----|----|----|----|----|----|----|
D|-R-|----|----|----|----|----|----|----|----|----|----|----|----|----|----|----|
A|---|----|----|----|----|----|----|----|----|----|----|----|----|----|----|----|
E|---|----|----|----|----|----|----|----|----|----|----|----|----|----|----|----|

                                                                                
   |w      q e e e e e e   Q e h   e e e e e e e e   Q e h    h|e e q   h|e e q  
G|----|----4---------4---|-------|-----------------|--------|---------|---------|
D|----|*4:---7-R-5-R---R-|-------|-5-R-7-R-5-R-4-R-|-------*|---------|---------|
A|----|*4:---------------|-5-0-5-|-----------------|-7-4---*|-2-------|---------|
E|----|------------------|-------|-----------------|-----5--|-----0-2-|-3---2-3-|

                                                                             
   h|e e q   q^q^q e Q     h|e e q   h|e e q   h|e e q   q^q^q e Q     q q q  
G|---------|-------------|---------|---------|---------|-----------|---------|
D|---------|---------9\X-|---------|---------|---------|---------R-|3:-------|
A|---------|-5-4-0-2-----|-2-------|---------|---------|-5-4-0-2---|4:-3-5-0-|
E|-5---4-5-|-------------|-----0-2-|-3---2-3-|-5---4-5-|-----------|---------|

                                                                              
     q e e e e e e   Q e h   e e e e e e e e   Q e h    q e e e e e e   Q e h  
G|---4---------4---|-------|-----------------|-------|--4---------4---|-------|
D|4:---7-R-5-R---R-|-------|-5-R-7-R-5-R-4-R-|-------|*---7-R-5-R---R-|-------|
A|4:---------------|-5-0-5-|-----------------|-7-4---|*---------------|-5-0-5-|
E|-----------------|-------|-----------------|-----5-|----------------|-------|

                                                               
   e e e e e e e e   Q e h    h|e e q   h|e e q   q e e|h   |w  
G|-----------------|--------|---------|---------|---------|----|
D|-5-R-7-R-5-R-4-R-|-------*|---------|---------|---R-----|----|
A|-----------------|-7-4---*|-2-------|---------|-5-------|----|
E|-----------------|-----5--|-----0-2-|-3---2-3-|-----0---|----|

"2112" VI - Soliloquy
=====================

                                                                                
   w   |w   |w   |w   |w   |w   |w   |w   |w   |w   |w   |w   |w   |w   |w   |w  
G|---|----|----|----|----|----|----|----|----|----|----|----|----|----|----|----|
D|-R-|----|----|----|----|----|----|----|----|----|----|----|----|----|----|----|
A|---|----|----|----|----|----|----|----|----|----|----|----|----|----|----|----|
E|---|----|----|----|----|----|----|----|----|----|----|----|----|----|----|----|

                                                                            
   |w   |w   |w     h e e q    h q e e   Q e q e e   Q e Q e   e e q e e q   
G|----|----|----|-----------|----------|-----------|---------|--------------|
D|----|----|----|4:-R-----R-|*---2-----|-----------|---------|-----------R-*|
A|----|----|----|4:---3-----|*-0---0-2-|-3-2-3-----|---------|-------3-----*|
E|----|----|----|-------3---|----------|-------3-2-|-1-0-1-0-|-1-0-1---3----|

                                                                                
   h q e e   Q e q e e   Q e Q e   e e q e e q    h q e e   Q e q e e   Q e Q e  
G|---------|-----------|---------|-------------|----------|-----------|---------|
D|---2-----|-------5-4-|-3-2-3-2-|-3-2-3-----R-|*---2-----|-----------|---------|
A|-0---0-2-|-3-2-3-----|---------|-------3-----|*-0---0-2-|-3-2-3-----|---------|
E|---------|-----------|---------|---------3---|----------|-------3-2-|-1-0-1-0-|

                                                                        
   e e q e e q 3  h q e e   Q e q e e   Q e Q e   e e q e e q   h q e e  
G|--------------|---------|-----------|---------|-------------|---------|
D|-----------R-*|---2-----|-------5-4-|-3-2-3-2-|-3-2-3-----R-|---2-----|
A|-------3-----*|-0---0-2-|-3-2-3-----|---------|-------3-----|-0---0-2-|
E|-1-0-1---3----|---------|-----------|---------|---------3---|---------|

                                                   
   Q e e e e e   Q e e e e e   e e e e e e e e   w  
G|-------------|-------------|-----------------|---|
D|-----------5-|-3-3-3-3-3-3-|-3-3-3-3---------|---|
A|-3-2-3-2-3---|-------------|---------3-3-----|---|
E|-------------|-------------|-------------1-1-|-0-|

"2112" VII - Grand Finale
=========================

                                                                  
     w   |w   |w   |w   Q e Q e   Q e Q e   q q e q e   q e q e q  
G|-----|----|----|----|---------|---------|-----------|-----------|
D|4:-R-|----|----|----|---------|---------|-----------|-----------|
A|4:---|----|----|----|-----7---|-----7---|---7---7---|-7---7---7-|
E|-----|----|----|----|-0-0---0-|-0-0---0-|-0---0---0-|---0---0---|

                                                                             
    q q e e q e   e q e e q e 7  q q e e q e   e q e e q e   e e e e e e e e  
G|--------------|--------------|-------------|-------------|-----------------|
D|*-------------|-------R-----*|-------------|-------R---R-|-----------------|
A|*---7-----7---|-5-4-----5-7-*|---7-----7---|-5-4-----5---|-7-7-7-7-7-7-7-7-|
E|--0---0-0---0-|-----5--------|-0---0-0---0-|-----5-------|-----------------|

                                                                           
   e e e e e e e e   h h   Q h|e     e h|e   e h|e   Q Q Q Q   e e e e e e  
G|-----------------|-----|-------|---------|-------|---------|-------------|
D|-----------------|-----|---R---|6:---R---|---R---|---9---7-|-------------|
A|-5-5-5-5-5-5-5-5-|-7-5-|-3-----|8:-2-----|-2-----|-7---5---|-3-2-3-3-3-3-|
E|-----------------|-----|-------|---------|-------|---------|-------------|

                                                                             
   e s e s e e e   e s e s e e e   e s Q e s Q   e e e e e e   e s e s e e e  
G|---------------|---------------|-----9-----7-|---5-4-2-----|---------------|
D|---------------|---------------|---9-----7---|---------5-2-|---------------|
A|-2-0-2-0-2-0-2-|-2-0-2-0-2-0-2-|-7-----5-----|-3-----------|-2-0-2-0-2-0-2-|
E|---------------|---------------|-------------|-------------|---------------|

                                                                             
   e s e s e e e   e s Q e s Q   e e e e e e   e s e s e e e   e s e s e e e  
G|---------------|-----9-----7-|-------------|---------------|---------------|
D|---------------|---9-----7---|-----------5-|---------------|---------------|
A|-2-0-2-0-2-0-2-|-7-----5-----|-3-2-3-5-3---|-2-0-2-0-2-0-2-|-2-0-2-0-2-0-2-|
E|---------------|-------------|-------------|---------------|---------------|

                                                                             
   e s^s^s s^s^s e s^s^s s^s^s   e e e e e e   e s e s e e e   e s e s e e e  
G|---------6-7-9---------4-5-7-|-------------|---------------|---------------|
D|---6-7-9---------4-5-7-------|-------2-----|---------------|---------------|
A|-7-------------5-------------|-3-2-3---5-3-|-2-0-2-0-2-0-2-|-2-0-2-0-2-0-2-|
E|-----------------------------|-------------|---------------|---------------|

                                                                       
   e s Q e s Q   e e e e e e   e s e s e e e   e s e s e e e   Q Q Q Q  
G|-----9-----7-|-5-4-2-------|---------------|---------------|---------|
D|---9-----7---|-------5-2---|---------------|---------------|---9---7-|
A|-7-----5-----|-----------3-|-2-0-2-0-2-0-2-|-2-0-2-0-2-0-2-|-7---5---|
E|-------------|-------------|---------------|---------------|---------|

                                                                           
   e e e e e e   e s e s e e e   e s e s e e e   Q s Q Q s Q   e e e e e e  
G|-------------|---------------|---------------|-----9-----7-|---5-4-2-----|
D|-------------|---------------|---------------|---9-----7---|---------5-2-|
A|-3-2-3-2-3-2-|-2-0-2-0-2-0-2-|-2-0-2-0-2-0-2-|-7-----5-----|-3-----------|
E|-------------|---------------|---------------|-------------|-------------|

                                                                               
   e s e s e e e   e s e s e e e   e s e s e e e   Q Q   Q Q   Q Q   Q Q   Q Q  
G|---------------|---------------|---------------|-----|-----|-----|-----|-----|
D|---------------|---------------|---------------|-----|-----|-----|-2-5-|-----|
A|-2-0-2-0-2-0-2-|-2-0-2-0-2-0-2-|-2-0-2-0-2-0---|-----|---2-|-3-5-|-----|-----|
E|---------------|---------------|-------------3-|-2-3-|-5---|-----|-----|-2-3-|

                                                                             
   Q Q   e e e e e e   e e e e e e    s e e s s e e s   s e e s s e e s    w  
G|-----|-------------|-------------|------------------|------------------|---|
D|-----|-------------|-------------|*-4-4-4-2-4-4-4-2-|-4-4-4-2-4-4-4-2-*|-4-|
A|---2-|-------2-3-5-|-------2-3-5-|*-----------------|-----------------*|---|
E|-5---|-2-3-5-------|-2-3-5-------|------------------|------------------|---|

********************************************************************************

          Created using "The Bass Tab Creator" by Mario D'Alessio
     __
   ||oo||       Notes:                        
   ||oo||               w = Whole  h = Half  q = Quarter
     ||                 e = 8th    s = 16th  t = 32nd  x = 64th
     ||
     ||                 Capitol notes are dotted notes (1.5 x duration)
     ||
     ||             n
     ||         |----|                     |----|
     ||         |*--*|  = MEASURE          |4:--|  = TIME
  _  ||  _      |*--*|    REPEATS          |4:--|    SIGNATURES
  \\_||_//      |----|   (n=Num Repeats)   |----|
   | [] |
   | || |       | = TIE         ^  = TRIPLET           ^ = BEND
  /  []  \      H = HAMMER ON   \  = SLIDE TO FRET     R = REST
  \______/      P = PULL OFF    /X = SLIDE TO NOWHERE  ~ = TRILL


********************************************************************************

Suggest correction
comments
print report bad tab
9 comments total. Showing first comments. show 1 bad comment
+3 reply
smartie_2000 10 Apr 03, 2004 12:00 AM

these tabs are insane!!!

+2 reply
deathbat411 382 May 26, 2007 03:37 PM

good job

guest
You may want to rate the tab now too:
select rating
Wanna post a correction for this tab? Suggest correction