Oops, an error
Loading. Please wait.

2112 I Overture Drum Tab

version 1
version 1

Whole song

Interactive

by Rush
1,753 views 15 this week
no commentswrite comment
1 2 3 4 5
please rate
add to favorites
launch autoscroll
font size
0
reset
guitar tuner
Autoscroll
slow
fast
+/-
esc
set tempo
stop
Help us to improve Ultimate-Guitar.com Take our survey!
×
Author
Jasonbts 4,508
NOT MY TAB. I just thought it would be good to have these here on UG. Credit goes to those below.


Rush: Overture
From the album 2112 (Mercury Records)
Copyright 1976 Core Music Publishing
Music by Lee and Lifeson
Lyrics by Peart

Comments/corrections to Bryan McDonald 

Transcribed by Bill Wheeler and Bryan McDonald


q = 134

             q       q       h                    Q          e   e
H|-------|-----------r-------r---------------|----r------------------|
S|4:--X--|---X-------e-------e---------------|5:--e----------X---X---|
T|4:-----|-----------s-------s---------------|8:--s------------------|
F|----X--|---X-------t-------t---------------|----t----------X---X---|

     q       q       h                  q       q       q       e   e
H|-----------r-------r--------------|-----------r-------r---------------|
S|---X-------e-------e--------------|---X-------e-------e-------X---X---|
T|-----------s-------s--------------|-----------s-------s---------------|
F|---X-------t-------t--------------|---X-------t-------t-------X---X---|

     q       q       e   e       q       q       e   e
H|-----------r-------r-------|-----------r-------r-------|
S|3:-X-------e-------e---X---|---X-------e-------e---X---|
T|4:---------s-------s-------|-----------s-------s-------|
F|---X-------t-------t---X---|---X-------t-------t---X---|

     q       q       q       e   e       q       Q          q       e
e
H|-----------r-------r-------r-------|-----------r----------r----------------|
S|4:-X-------e-------e-------e---X---|9:-X-------e----------e-------F--------|
T|4:---------s-------s-------s-------|8:---------s----------s----------x5----|
F|---X-------t-------t-------t---X---|---X-------t----------t-------X---X----|

     q       e   e   q       e       q       q       q       e   e
H|------------------------------|-----------r-------r-------r--------|-------|
S|7:---------F---------------X--|4:-X-------e-------e-------e---X----|---%---|
T|8:x6----------x5--x6----------|4:---------s-------s-------s--------|-------|
F|---X-------X---X---X-------X--|---X-------t-------t-------t---X----|-------|

     q       Q          q       e   e         q       q       q       e
H|-----------r----------r---------------|------------r-------r------------|
S|9:-X-------e----------e-------F-------|7:----------e-------e-------X----|
T|8:---------s----------s----------x5---|8:-x6-------s-------s------------|
F|---X-------t----------t-------X---X---|----X-------t-------t-------X----|

     q       q       q       e   e
H|-----------r-------r-------r-------|---------|
S|4:-X-------e-------e-------e---X---|----%----|
T|4:---------s-------s-------s-------|---------|
F|---X-------t-------t-------t---X---|---------|

     Q          e   Q          e   e        q       e   e   q       e
H|-------------------------------------|--------------------------------|
S|9:-X----------X---X----------F-------|7:----------F---------------F---|
T|8:------------------------------x5---|8:-x6----------x5--x6-----------|
F|---X----------X---X----------X---X---|----X-------X---X---X-------X---|

     q       q       q       q           q       e   e
H|---c-------C---------------c-------|---C-----------C---|
S|4:-----------------F---------------|2:---------F-------|
T|4:---------------------------------|4:-----------------|
F|---X-------X---------------X-------|---X-----------X---|

     q+      q       h                   w
H|---C---------------r---------------|---r-------------------------------|
S|4:-----------------e---------------|---e-------------------------------|
T|4:-----------------s---------------|---s-------------------------------|
F|---X---------------t---------------|---t-------------------------------|

    q       q       q       q           q       e   e
H|--c-------C---------------c-------|---C-----------C---|
S|------------------F---------------|2:---------F-------|
T|----------------------------------|4:-----------------|
F|--X-------X---------------X-------|---X-----------X---|

     q+      q       h                  h               q       q
H|---C---------------r---------------|--r-------------------------------|
S|4:-----------------e---------------|--e-------------------------------|
T|4:-----------------s---------------|--s----------------------x7-------|
F|---X---------------t---------------|--t-----------------------X-------|

     e   s s e   s s s s s s s s s s     s s s s s s s s s s s s s s s s
H|---C-------------------------------|-----------------------------------|
S|-----------X---------------X-------|-----------X---------------X-X-----|
T|-------6-5-----6-5-6-5-6-5---5-6-5-|---6-5-6-5---5-6-5-6-5-6-5-----6-5-|
F|---X---X---X---X---X---X---X---X---|---X---X---X---X---X---X---X---X---|

     s s s s s s s s s s s s s s s s     e   s s s s s s e   e   s s s s
H|-----------------------------------|-----------------------C-----------|
S|-----------X-X-------------X-X-----|-------X-----X---------X---X-X-X-X-|
T|---6-5-6-5-----6-5-6-5-6-5-----6-5-|---6-----6-5---6-5-6---------------|
F|---X---X---X---X---X---X---X---X---|---X---X---X---X---X---X---X---X---|

     e   e   e   e   e   e   e   e       e   e   e   e   e   s s e   e
H||--C-------C-------H-------C-------|---H-------C-------H-------C-------|
S||----------X---------------X-------|-----------X---------------X-------|
T||----------------------------------|-----------------------------------|
F||--X---X-------X---X---X-------X---|---X---X-------X---X---X-X-----X---|


       _________________________________
______________________________
       | 1.                                 | 2.
       | e   s s s s s s e   e   s s s s    | e   s s s s s s e   e   s s
s s
H|-----|-C-------------------C-------------||-C-------------------C----------|
S|--%--|-----X-X-X-X---------X---X-X------o||-----X-X-X-X-X-X-X---X---X-X----|
T|-----|-------------6-5-6-----------5-5--o||-----------------------------5-5|
F|-----|-X---X---X---X---X---X---X---X-----||-X---X---X---X---X---X---X---X--|


    e   e   e   e   e   e   e   e       e   e   e   e   e   e   e   e
H|--C-------C-------H-------C-------|---H-------C-------H-------C------|-----|
S|----------X---------------X-------|---X-------X-------X-------X------|--%--|
T|----------------------------------|----------------------------------|-----|
F|--X---X-------X---X---X-------X---|---X---X---X---X---X---X---X---X--|-----|


     e   s s s s s s s s s s e   e+     q       q       h
H|---C---------------------------C---|----------r-------r----------------|
S|---X---X-X-X-X-X-X-X-X-X-X-X-------|----------e-------e----------------|
T|-----------------------------------|----------s-------s----------------|
F|---X---X---X---X---X---X---X---X---|----------t-------t----------------|


     w                 w
H|---r-------------|---r-------------|
S|---e-------------|---e-------------|
T|---s-------------|---s-------------|
F|---t-------------|---t-------------|


     e   e   e   e   e   e   e   e+      q       q        h
H|---r---------------------------C---|-----------r--------r--------------|
S|---e---F---F-----------------------|-----------e--------e--------------|
T|---s----------x5--x6--x6--x3-------|-----------s--------s--------------|
F|---t---------------------------X---|-----------t--------t--------------|

     >    6      >                       >           >
     s^s^s^s^s^s q       h               s^s^s^s^s^s q       h
H|-----------------------r-----------|-----------------------r-----------|
S|-----------------------e-----------|-----------------------e-----------|
T|---1-1-1-1-1-1-1-------s-----------|---1-1-1-1-1-1-1-------s-----------|
F|-----------------------t-----------|-----------------------t-----------|

     e   s s s s s s s s s s s s e+      q       q       h
H|-------------------------------C---|-----------r-------r---------------|
S|-------X-X-------------------------|-----------e-------e---------------|
T|-----------5-5-5-5-6-6-6-6-7-7-----|-----------s-------s---------------|
F|-------------------------------X---|-----------t-------t---------------|

     w                                   q       q       h
H|---r-------------------------------|-----------r-------r---------------|
S|---e-------------------------------|---F-------e-------e---------------|
T|---s-------------------------------|-----------s-------s---------------|
F|---t-------------------------------|---X-------t-------t---------------|

     e   s s s q       e   s s s e   e+      q       q       h
H|-----------------------------------C---|-----------r-------r-----------|
S|---F---X-------------F---X---------X---|-----------e-------e-----------|
T|---------5-X---------------5-X---------|-----------s-------s-----------|
F|-------------X-----------------X---X---|-----------t-------t-----------|

    w                 w                  e   e   e   e   e   e   e   e+
H|--r-------------|---r--------------|---r---------------------------C---|
S|--e-------------|---e--------------|---e---F---F--x5---F--x6--x7-------|
T|--s-------------|---s--------------|---s-------------------------------|
F|--t-------------|---t--------------|---t---------------------------X---|

     q       e   e   q+      e   e       e   s s tttts s s s s s s s s s
H|-----------r---C---C-----------C---|---C-------------------------------|
S|-----------e-----------------------|-------X-X--X-X--X-X-X---X-X-------|
T|-----------s-----------------------|-----------5-5-5-------6-----5-6-6-|
F|-----------t---X---X-----------X---|---X-------------------------------|

                          3                                  3
     q+      q       q^^^^q^^^^q        q       s s s s q^^^^q^^^^q
H|---C-------r-------r--------------|---C-------------------------------|
S|-----------e-------e--------------|-----------------------------------|
T|-----------s-------s---x6---x6----|-----------5-5-5-5-5---x6---x7-----|
F|---X-------t-------t--------------|---X-------------------------------|

                                                             3
     q       s s e   e   s s s s s s     E     E     E     s^s^s q
H|---C-------r-----------------------|---C-----C-----C-------------------|
S|-----------e-------------X---X-----|---------------------X-------------|
T|-----------s-X-X---7---6---6---6-6-|-----------------------5-X---------|
F|---X-------t-----------------------|---X-----X-----X-----------X-------|

                3         3                3                   3
     q       e^^e^^e   e^^e^^e       q^^^^^q^^^^^q       q^^^^^q^^^^^q
H|---C-------r-------------------|---C-------------------------------------|
S|-----------e-------------------|-----------------------------------------|
T|-----------s--5--5---5-x6--x7--|--------x1----x3------x4----x5----x6-----|
F|---X-------t-------------------|---X-------------------------------------|

           > >         > >
     s s s s e   s s s s e   s s s s      E     E     E
H|---C-------------------------------|----C-----C-----C----|
S|-----X-X-X-X-----X-X-X-X-----X-----|2:-------------------|
T|---------------6-----------6---6-6-|4:-------------------|
F|---X-------------------------------|----X-----X-----X----|

       q       q       q      e       q       q       h
H||----c-------r-------r------r---|-----------r-------r---------------|
S||7:o---------e-------e------e---|8:-F-------e-------e---------------|
T||8:o---------s-------s------s---|8:---------s-------s---------------|
F||----X-------t-------t------t---|---X-------t-------t---------------|

      q       h             h                  Q          q       q
H|------------r-------------r-------------|----c----------c-------c------||
S|10:-F-------e-------------e-------------|7:---------------------------o||
T|8:----------s-------------s-------------|8:---------------------------o||
F|----X-------t-------------t-------------|----X----------X-------X------||

     q       e   e   e   e   e   e       e   e   e   e   e   e   e   e
H|---C-------r-----------------------|-----------------------------------|
S|4:---------e---X---X---X---X---X---|---X---X---X---X---X---X---X---X---|
T|4:---------s-----------------------|-----------------------------------|
F|---X-------t---X---X---X---X---X---|---X---X---X---X---X---X---X---X---|

     e   e   e   e   e   e   e   e       e   e   e   e   E     E     e
H|-----------------------------------|-------------------C-----C-----C---|
S|---X---X---X---X---X---X---X---X---|---X---X---X---X-------------------|
T|-----------------------------------|-----------------------------------|
F|---X---X---X---X---X---X---X---X---|---X---X---X---X---X-----X-----X---|

     q       e   e   e   e   e   e       e   e   e   e   s s e   e   e
H|---C-------R---R---R---R---R---R---|---R---R---R---R---R---R---R---R---|
S|-------------------X---------------|-------------------X---------------|
T|-----------------------------------|-----------------------------------|
F|---X-----------X---------------X---|---X-----------X----(X)X--(X)--X---|

                                     ____________________________________
                                     | 1.
     e   e   e   e   e   e   e   e   |   e   e   s s s s E    E    E
H|---R---R---R---R---R---R---R---R---|---R---R-----------C----C----C----|
S|-------------------X---------------|-----------X-X--------------------|
T|-----------------------------------|---------------6-6----------------|
F|---X-----------X---------------X---|---X---------------X----X----X----|

 __________________________________
 | 2.
 |   e   s s s s s s E    E    E        q       e   e   e   e   e   e
H|---R---------------C----C----C----|---C-------R---R---R---R---R---R---|
S|-------X-X-----X-X----------------|-------------------X---------------|
T|-----------6-5--------------------|-----------------------------------|
F|---X---------------X----X----X----|---X-----------X---------------X---|

     e   e   e   e   e   e   e   e       e   s s s s e   s s s s e   s s
H|---R---R---R---R---R---R---R---R---|---R---R---R---R---R---R---R---R---|
S|-------------------X---------------|---X-----X-----X-----X-----X-----X-|
T|-----------------------------------|-----------------------------------|
F|---X-----------X---------------X---|-------------X-----X-----X-----X---|

     s s e   s s s s E    E    E        q       e   e   e   e   e   e
H|---R---R-----------C----C----C----|---C-------R---R---R---R---R---R---|
S|-------X---X-X-X-X----------------|-------------------X---------------|
T|----------------------------------|-----------------------------------|
F|-----X-------------X----X----X----|---X-----------X---------------X---|

     e   e   s s s s s E    q           q+      q       e   e   e   e
H|---R---R---R---------C----C-------|---C---------------r---------------|
S|-------------X-X-X-X--------------|-------------------e---X---X---X---|
T|----------------------------------|-------------------s---7---7---7---|
F|---X-----------------X----X-------|---X---------------t---X---X---X---|

     e   e   e   e   q       q            e   s s s s e   e   s s s s s s
H|---------------------------C-------||---C---R---B---B---B---B---B---B---|
S|---X---X---X---X---X---------------||o----------X---------------X-----X-|
T|---7---7---7---7---7---------------||o----------------------------------|
F|---X---X---X---X---X-------X-------||---X-----X---X-----X-----X---X-----|

     e   s s s s e   s s s s e   e       e   s s s s e   e   s s s s e
H|---B---B---B---B---B---B---B---B---|---B---B---B---B---B---B---B---B---|
S|-----------X---------X-----X-------|-----------X---------------X-------|
T|-----------------------------------|-----------------------------------|
F|---X-----X---X-----X-----X---------|---X-----X---X-----X-----X---X-----|

 ________________________________      ____________________________________
 | 1.                                  | 2.
 |   e   s s s s e   e   s s s s s s   |   e   s s s s e   e   s s e   s s
H|---B---B---B---B---B----------------||---B---B---B---B---B---B-----------|
S|-----------X-----------X-X---------o||-----------X---------------F---X-X-|
T|---------------------------5-5-6-6-o||-----------------------------------|
F|---X-----X---X-----X----------------||---X-----X---X-----X-----X---------|

     e   s s s s e   e   s s s s e       e   s s s s e   s s s s e   s s
H|---C---B---B---B---B---B---B---B---|---B---B---B---B---B---B---B-------|
S|-------X-------F---------X-----X---|---------X-----X-----X-----X---X-X-|
T|-----------------------------------|-----------------------------------|
F|---X-----X---X-----X---------X-----|---X---------X-----X-----X---------|

     e   s s s s e   e   s s s s e       e   s s s s e   e   s s s s e
H|---C---B---B---B---B---B---B---B---|---B---B---B---B---B---B---B---B---|
S|-----------X---------------X-------|-----------X---------------X-------|
T|-----------------------------------|-----------------------------------|
F|---X-----X---X-----X-----X---X-----|---X-----X---X-----X-----X---X-----|

     e   s s s s e   s s s s s s e       e   s s e   e   s s e   e   s s
H|---C---B---B---B---B---B---B---B---|---B---B---B---B---B---B---B-------|
S|-------X-------X-------X-------X---|---X-----X-----X-----X-----X---X-X-|
T|-----------------------------------|-----------------------------------|
F|---X-----X---X-----X-X---X---X-----|-----------------------------------|

     e   s s e   e   e   s s s s e       e   s s e   e   s s s s e   s s
H|---C---B---B---B---B---B---B---B---|---B---B---B---B---B---B---B---B---|
S|-----------X---------------X-------|-----------X---------X-----X---X-X-|
T|-----------------------------------|-----------------------------------|
F|---X-----X-----X---X-----X---X-----|---X-----X-----X---X-----X---------|

     e   s s e   s s e   s s e   s s     e   s s e   s s e   s s e   s s
H|---B---B---B---B---B---B---B---B---|---B---B---B---B---B---B---B---B---|
S|-----------X-------X-------X-------|---X-------X-------X-------X-------|
T|-----------------------------------|-----------------------------------|
F|---X-----X-------X-------X-------X-|---------X-------X-------X-----X---|

     e   s s s s e   s s e   s s e       s s s s s s e   s s e   s s e
H|---B---B---B---B---B---B---B---B---|---B---B---B---B---B---B---B---B---|
S|-------X-------X-------X-------X---|-------X-------X-------X-------X---|
T|-----------------------------------|-----------------------------------|
F|---X-----X---X-------X-------X-----|---X-X---X---X-------X-------X-----|

     e   e   s s e   e   e   s s e        e   e   s s e   e   e
H|---C---B---C---B---C---B---C---B---|----C---B---C---B---C---C---|
S|-------X-------X-------X-------X---|3:------X-------X-----------|
T|-----------------------------------|4:--------------------------|
F|---X---------X-----X---------X-----|----X---------X-----X---X---|

     q+      q       e    q       e   e       q       e   e   q       e
H|---C---------------r--------------------|---C---------------C-----------|
S|9:-----------------e------------F-------|7:---------F---------------F---|
T|8:-----------------s---------------x5---|8:------------x5---------------|
F|---X---------------t----P---------------|---X-------X---X---X-------X---|

     e   s s s s s s e   s s s s s s                      q+  q   h
H|---C---------------C---------------|-----------------|--C-------r------||
S|4:---------------------------------|--------%--------|----------e------||
T|4:-----X-X-X-X-X-X-----X-X-X-X-X-X-|-----------------|----------s------||
F|---X---------------X---------------|-----------------|--X-------t------||

__________________________________________________________________________

KEY:

 Hi-hats & Cymbals  -O-X-H--C-R-B-S-T-c-
             Snare  -X-S-R-F------------
               Tom  -1-2-3-4-5-6-X------
       Foot Pedals  -X-P----------------


Hi-hats & Cymbal line:

Hi-hats  O - OPEN HH
         X - CLOSED HH
         P - PEDAL HH
         H - HALF OPEN HH
Cymbals  C - CRASH
         c - CRASH CHOKE
         R - RIDE
         B - RIDE BELL
         S - SPLASH
         T - CHINA (AKA TRASH)

Snare line:
     X - SINGLE HIT
     R - RIMSHOT
     F - FLAM (Hit with both sticks, one slightly before the other)
     S - SIDE STICK
     x - GRACE NOTE (hit snare slightly and right before the prime note)

Tom line:
        Notated by number. 1 being the highest sounding to the lowest tom.
        (The numbers depend on how many toms Neil is using in any given song,
        it's up to you to fit them in your drumset.)
        X - Floor tom
 NOTE - Originally this key had two tom lines, but I decided to use
        just one too keep it simpler.
        A second tom line will be added to the bar ONLY if two toms are
        played at once.
 Foot Pedal line:
        X - KICK DRUM
        P - Hi-hat pedal
        When the right and left kick drums are being used together they will
        be notated with a right (R) or a left (L)

Rhythm:
w whole note                    W dotted whole note
h half note                     H dotted half note
q quarter note                  Q dotted quarter note
e eighth note                   E dotted eighth note
s sixteenth note                S dotted sixteenth note
t thirty-second note            T dotted thirty-second note

% Repeat last measure

Fermata - Hold the note at pleasure

> - Accent: When a note is given special emphasis

||----||
||o--o||  Repeat
||o--o||  Signs
||----||

Suggest correction
What's this?
You can suggest a correction to this tab. Community and Mods will review your correction and vote to approve or reject it.
comments
We did not receive enough feedback on this tab! Please rate:
print report bad tab
1 2 3 4 5
guest
You may want to rate the tab now too:
select rating
Please do not post tabs as comments. Select "correction" instead!