Oops, an error
Loading. Please wait.

2112 Soliloquy Tab

version 2
version 2

Whole song

by Rush
1,406 views 1 this week
no commentswrite comment
1 2 3 4 5
excellent!
x 1
add to favorites
launch autoscroll
font size
0
reset
how to read this tab
guitar tuner
Tab Pro tools
  • play this tab
  • loop segment
  • change instrument
  • show fretboard
  • metronome
Autoscroll
slow
fast
+/-
esc
set tempo
stop
Contributor
#----------------------------------PLEASE NOTE---------------------------------#
#This file is the author's own work and represents their interpretation of the #
#song. You may only use this file for private study, scholarship, or research. #
#------------------------------------------------------------------------------#

                              2112 - VI. SOLILOQUY
                               As recorded by Rush
                           (From the 1976 Album 2112)

Words by PeartMusic by Lee & Lifeson
Transcribed by charlesdbruce@hotmail.com
Last Updated: 2006-05-20

           D                  Dsus2                Cadd9                 G/B
      x x 0 2 3 2          x x 0 2 3 0          x 3 2 0 3 x          x 2 0 0 
3 x

         Dm/F                  Em7                  D5                   D/A
      x x 3 2 3 x          0 x 2 0 3 x          x x 0 2 3 5          x 0 0 2 
3 2

          Am7                  C/G                   F                   C5
      x 0 2 0 1 0          3 x 2 0 1 0          1 3 3 2 1 1          x 3 5 5 
x x

          G5                   F5                   E5                    E
      3 5 5 x x x          1 3 3 x x x          0 2 2 x x x          x 7 9 9 
9 x

Gtr I   (E A D G B E) - 'Clean W/Maestro Phase Shifter'
Gtr II  (E A D G B E) - 'Overdriven W/Maestro Phase Shifter'
Gtr III (E A D G B E) - 'Lead Guitar'
Gtr IV  (E A D G B E) - 'Pick Slide'

  Q=94
  D              Cadd9     G/B        Dm/F  Em7          D
4/4
  Gtr I
  E E E Q  E +E  E   E E E Q  E E E   E E E Q  E S S E    W
|-----2------------|----------------|------------------|-^2----|
|-------3----------|----------------|-----3------------|-^3----|
|---2------2-(2)-0-|-----0------0---|---2------0-------|-^2----|
|-0----------------|---2------0---0-|-3-----2----0h3p0-|-^0----|
|------------------|-3-----2--------|------------------|-------|
|------------------|----------------|------------------|-------|


  Dsus2        Cadd9     G/B        Dm/F  Em7          D
  E E E Q  E E E   E E E Q  E E E   E E E Q  E S S E    W
|-0--------------|----------------|------------------|-^2----|
|---3--------3---|----------------|-----3------------|-^3----|
|-----2----2---0-|-----0------0---|---2------0-------|-^2----|
|-0-----0--------|---2------0---0-|-3-----2----0h3p0-|-^0----|
|----------------|-3-----2--------|------------------|-------|
|----------------|----------------|------------------|-------|


  D            Cadd9     G/B        Dm/F  Em7          D/A
  E E E Q  E E E   E E E Q  E E E   E E E Q  E S S E    W
|-2--------------|----------------|------------------|-^2----|
|---3--------3---|----------------|-----3------------|-^3----|
|-----2----2---0-|-----0------0---|---2------0-------|-^2----|
|-------0--------|---2------0---0-|-3-----2----0h3p0-|-^0----|
|----------------|-3-----2--------|------------------|-^0----|
|----------------|----------------|------------------|-------|


  D             Cadd9     G/B        Dm/F  Em7          D        D5
   E E E Q  E E E   E E E Q  E E E   E E E Q  E S S E    H.       Q
|-^2--------------|----------------|------------------|-^2-------^5---|
|-^3-3--------3---|----------------|-----3------------|-^3-------^3---|
|-^2-0-2----2---0-|-----0------0---|---2------0-------|-^2-------^2---|
|-^0-----0--------|---2------0---0-|-3-----2----0h3p0-|-^0-------^0---|
|-----------------|-3-----2--------|------------------|---------------|
|-----------------|----------------|------------------|---------------|


  Am7              C/G             F                     C5G5
                                                         Gtr II
  E E E Q  E E E   E E E Q  Q  E   E E E Q  E E E   H    E E Q
|-------0--------|-------0-------|-------1--------|-------------|
|----------1-----|----------1----|----------1-----|-------------|
|-----0--------0-|-----0-------0-|--------------2-|------5------|
|---2--------2---|---2-----------|-----3------3---|-3----5-5----|
|-0--------------|---------------|---3------------|-3----3-5----|
|----------------|-3-------------|-1--------------|-1------3----|


  Am7             C/G             F                    C5G5
  Q  E Q  E E E   Q.   Q  E E E   Q.   E E Q  E   H    E E Q
|------0--------|------0--------|--------1------|-------------|
|---------1-----|---------1-----|----------1----|-------------|
|-------------0-|-------------0-|-------------2-|------5------|
|-2--2------2---|-----------2---|------3------3-|-3----5-5----|
|-0-------------|---------------|-3-------------|-3----3-5----|
|---------------|-3-------------|-1-------------|-1------3----|


  Am7             C/G              F                    C5G5
  Gtr III
  W               W                W               H    S S S S S S S S
|---------------|----------------|---------------|----------------------|
|---------------|----------------|---------------|----------------------|
|---------------|----------------|---------------|----------------------|
|---------------|----------------|---------------|----------------------|
|---------------|----------------|---------------|----------------------|
|---------------|----------------|---------------|------3-3-3-3-3-3-3-3-|
|
| Gtr II
| Q  E Q  E E E   Q.   E E E E E   Q.   E E Q  E   H    E   E   Q
|------0--------|--------0-------|--------1------|----------------------|
|---------1-----|----------1-----|----------1----|----------------------|
|-------------0-|--------------0-|-------------2-|------5---------------|
|----2------2---|-2----2-----2---|------3------3-|-3----5---5-----------|
|-0-------------|-x--------------|-3-------------|-3----3---5-----------|
|---------------|-3--------------|-1-------------|-1--------3-----------|


  Am7                  C/G   C
          Gtr Gtr III
   ~~~                                ~~~~~~~~~
   Q.      Q   E E E   +E  S S S S  E H
|--------------------|------------------------|
|--------------------|------------------------|
|--------------------|------------------------|
|--------------------|----------------5-------|
|--------------------|---------3---/7---------|
|-/5------12\--5-3-5-|-(5)-3-5---5------------|
|
|  E  E E  Q   E E E    Q.          E E E E E
|----------0---------|----------------0-------|
|--------------1-----|------------------1-----|
|-------0----------0-|----------------------0-|
|-----2----------2---|-(2)----------2-----2---|
|--0-----------------|--x---------------------|
|--------------------|--3---------------------|


  F                                 C5  G5
~~~~~    ~        ~~~~~~~~  ~~~~~~~
                                             |---3----|
  +Q.   a H      a E   +E  a Q  +E  S S S S +S    +S  S S S
|--------------------|----------------------------------------|
|--------------------|----------------------------------------|
|--------------------|--------------5---5-7-(7)b9r(7)p5---5---|
|-(5)---5h7------5h7-|-(7)-5h7--(7)---7-----------------7-----|
|--------------------|----------------------------------------|
|--------------------|----------------------------------------|
|
|  Q.     E E Q    E    H           E   E    Q
|-----------1--------|----------------------------------------|
|-------------1------|----------------------------------------|
|------------------2-|--------------5-------------------------|
|---------3--------3-|--3-----------5---5---------------------|
|--3-----------------|--3-----------3---5---------------------|
|--1-----------------|--1---------------3---------------------|


  Am7                                 C
  ~~~~~~~~~~~~~~~                                   ~~~~
  H          +Q    +S   E.       E    +E  S S   S   E      +E.   S S a +E
|-----------------------------|----------------------------------------------|
|-----------------------------|----------------------------------------------|
|-7b9========(7)---(7)r-7b9---|--7b9==(7)r5-7b9-7b9-7b9====(7)r==5-7-7-(7)b9-|
|-----------------------------|----------------------------------------------|
|-----------------------------|----------------------------------------------|
|-----------------------------|----------------------------------------------|
|
| E    E E Q     E  E       E    Q.             E        E     E E      E
|----------0------------------|--------------------------0-------------------|
|----------------1------------|--------------------------------1-------------|
|--------0------------------0-|-----------------------------------------0----|
|------2------------2---------|--x--------------2----------------2-----------|
|-0---------------------------|-(0)------------------------------------------|
|-----------------------------|--3-------------------------------------------|


  F                                        CG5
  ~~~~            ~~~~~~~~~~~~~~~~~~
                                                    |----3-----|
  E    +E  S S S +Q      +Q    +S     E  S    S  S  S     +S   S  S  S  S  S 
  S  S  E.
|-----------------------------------|-------------------------------------12-15-15-15b17r===|
|-----------------------------------|--------13-15-15b17r(15)p13----13-15-------------------|
|-5b7==(5)r=========================|===14-----------------------14-------------------------|
|----------7-5-7-(7)-----(7)---(7)/-|-------------------------------------------------------|
|-----------------------------------|-------------------------------------------------------|
|-----------------------------------|-------------------------------------------------------|
|
| Q.           E     E Q     E        H                              E     E 
     Q
|--------------------1--------------|-------------------------------------------------------|
|----------------------1------------|-------------------------------------------------------|
|----------------------------2------|--------------------------------5----------------------|
|--------------3-------------3------|-3------------------------------5-----5----------------|
|-3---------------------------------|-3------------------------------3-----5----------------|
|-1---------------------------------|-1------------------------------------3----------------|


  Am7                            C/G
    ~~~~~~~         ~~~~~~~~~~~~~~~~~~~~~~~~~~
   +Q.        E     H             Q      Q       +E      E  E    E
|-(15)b17----15b17-15b17-------|-17b19--17b19---(17)b19-17-17b19---|
|------------------------------|-----------------------------------|
|------------------------------|-----------------------------------|
|------------------------------|-----------------------------------|
|------------------------------|-----------------------------------|
|------------------------------|-----------------------------------|
|
|   Q      E  Q          E E E    Q.          E   E      E  E    E
|-------------0----------------|------------------0----------------|
|------------------------1-----|-------------------------1---------|
|----------------------------0-|---------------------------------0-|
|----------2---------------2---|-(2)----------2-------------2------|
|---0--------------------------|--x--------------------------------|
|------------------------------|--3--------------------------------|


  F                                       C5  G5
                                     Gtr IGtr III
   ~~~~~~~~~~~~~~~~~~~~~~~~~~~~~~~~~
   H         Q       Q         Q      Q   S S S +E     S E
|-18b20-----18b20---18b20---|-18b20-------------------------|
|---------------------------|--------19\--8-8-8-(8)------8--|
|---------------------------|--------17\--7-7-7-(7)r---5-7--|
|---------------------------|-------------------------------|
|---------------------------|-------------------------------|
|---------------------------|-------------------------------|
|
|  Q.     E  E    Q       E    H          E   E      Q
|------------1--------------|-------------------------------|
|-----------------1---------|-------------------------------|
|-------------------------2-|-------------5-----------------|
|---------3---------------3-|--3----------5---5-------------|
|--3------------------------|--3----------3---5-------------|
|--1------------------------|--1--------------3-------------|


  Am7                     C/G
                           ~~~     ~~~
  H          Q.     +E     Q.   E  Q.     S S
|-----------------------|---------------------|
|------------8----------|---------[5]---------|
|-7b9=======(7)-----(7)r|==7----5-------------|
|-----------------------|-----------------5-7-|
|-----------------------|---------------------|
|-----------------------|---------------------|
|
| Q     E Q     E E  E     Q.   E  E  E E E
|---------0-------------|----------0----------|
|---------------1-------|-------------1-------|
|--------------------0--|-----------------0---|
|-------2---------2-----|-(2)---2-------2-----|
|-0---------------------|--0------------------|
|-----------------------|--3------------------|


  F                                             C5G5
                 ~~~~~~~~
  S  E S S S S S Q   +E.    S   +E  S S S S S S E E     E     E
|-----------------------------|--------------------------------------|
|-----------------------------|--------------------------------------|
|-5--7p5---5------------------|--------------------------------------|
|--------7---7-5-7---(7)------|-------5-7-6-5------------------------|
|--------------------------\5-|-(5)-7---------7-6-5b6.5-5b6.5-5b6.5--|
|-----------------------------|--------------------------------------|
|
| Q.         E   E Q     E       H              E E     Q
|----------------1------------|--------------------------------------|
|------------------1----------|--------------------------------------|
|------------------------2----|-----------------5--------------------|
|------------3-----------3----|--3--------------5-5------------------|
|-3---------------------------|--3--------------3-5------------------|
|-1---------------------------|--1----------------3------------------|


  Am7                       C/G
  ~~~~~~~~~~~~~~~
  H         Q.       +E      Q.     E    S S E Q
|-------------------------|---------------------------|
|-------------------------|---------------------------|
|-------------------------|---------------------------|
|-------------------------|---------------------------|
|-5b7-------5b7======(5)r-|--5pb7r==5pb7r3-5-3-5pb7r==|
|-------------------------|---------------------------|
|
| E   E E Q      E E  E      Q.     E    E   E E    E
|---------0---------------|--------------0------------|
|----------------1--------|------------------1--------|
|-------0-------------0---|-------------------------0-|
|-----2------------2------|-(2)-----2----------2------|
|-0-----------------------|--x------------------------|
|-------------------------|--3------------------------|


  F                                     C5       G5
                                        |--3---|
  Q   E  E S S S S E  E   S S E S S S S S   S  S S S S S S S
|-----------------------|-------------------------------------|
|-----------------------|-----------5-------------------------|
|----------5-5-5-5-5----|-5-5-5-------7-7b9r7r-5---5-----5-7--|
|-----------------------|-------5-7--------------7---5-7------|
|-------/7-----------/7-|-------------------------------------|
|-5---------------------|-------------------------------------|
|
| Q.     E E   Q      E   H             E        E   Q
|----------1------------|-------------------------------------|
|--------------1--------|-------------------------------------|
|---------------------2-|---------------5---------------------|
|--------3------------3-|-3-------------5--------5------------|
|-3---------------------|-3-------------3--------5------------|
|-1---------------------|-1----------------------3------------|


  Am7                C/G               F5
   >
   ~~~~~~~~~~~~~~~~~~~~~~
   W                 +W                W                W
|------------------|-----------------|----------------|------------------|
|-[5]--------------|-(5)-------------|----------------|------------------|
|------------------|-----------------|----------------|------------------|
|------------------|-----------------|----------------|------------------|
|------------------|-----------------|----------------|------------------|
|------------------|-----------------|----------------|------------------|
|
|  E  E E Q  E E E    Q.   E E E E E   Q  E E E E E E   E E E E E E E E
|---------0--------|---------0-------|----------------|------------------|
|------------1-----|-----------1-----|----------------|------------------|
|-------0--------0-|---------------0-|----------------|------------------|
|-----2--------2---|--2----2-----2---|-3--3-3-3-3-3-3-|-3-3-3-3-3-3-3-3S=|
|--0---------------|--x--------------|-3--3-3-3-3-3-3-|-3-3-3-3-3-3-3-3S=|
|------------------|--3--------------|-1--1-1-1-1-1-1-|-1-1-1-1-1-1-1-1S=|


  E5                  E
  Gtr II
              >       Segue to Grand Finale
  W          +H.      Q
|----------|-------------*|
|----------|-------------*|
|----------|----------9--*|
|-2--------|-(2)------9--*|
|-2--------|-(2)------7--*|
|-0--------|-(0)---------*|


Duration Legend
---------------
W - whole; H - half; Q - quarter; E - 8th; S - 16th; T - 32nd; X - 64th; a - 
acciaccatura
+ - note tied to previous; . - note dotted; .. - note double dotted
Uncapitalized letters represent notes that are staccato (1/2 duration)
Irregular groupings are notated above the duration line
Duration letters will always appear directly above the note/fret number it 
represents the
duration for.  Duration letters with no fret number below them represent 
rests.  Multi-
bar rests are notated in the form Wxn, where n is the number of bars to rest 
for.  Low
melody durations appear below the staff

Tablature Legend
----------------
h   - hammer-on
p   - pull-off
b   - bend
pb  - pre-bend
r   - bend release (if no number after the r, then release immediately)
/\  - slide into or out of (from/to "nowhere")
s   - legato slide
S   - shift slide
  - natural harmonic
[n]  - artificial harmonic
n(n) - tapped harmonic
~   - vibrato
tr  - trill
T   - tap
TP  - trem. picking
PM  - palm muting
\n/  - tremolo bar dip; n = amount to dip
\n  - tremolo bar down
n/  - tremolo bar up
/n\  - tremolo bar inverted dip
=   - hold bend; also acts as connecting device for hammers/pulls
<>  - volume swell (louder/softer)
x   - on rhythm slash represents muted slash
o   - on rhythm slash represents single note slash

Misc Legend
-----------
|  - bar
||  - double bar
||o - repeat start
o|| - repeat end
*|  - double bar (ending)
:  - bar (freetime)
$  - Segno
&  - Coda
Tempo markers -  = BPM(8/16=s8/s16), where s8 = swing 8ths, 
s16 = swing 16ths

***************************************************************************************
* Generated using Power Tab Editor by Brad Larsen - http://powertab.guitarnetwork.org *
***************************************************************************************
comments
We did not receive enough feedback on this tab! Please rate:
print report bad tab
1 2 3 4 5
I want to post or [tab]
guest
You may want to rate the tab now too:
select rating
Please do not post tabs as comments. Select "correction" instead!