Oops, an error
Loading. Please wait.

2112 Vi Soliloquy Tab

version 3
version 3

Whole song

Interactive

by Rush
122 views 3 this week
no commentswrite comment
1 2 3 4 5
2 more votes to show rating
add to favorites
launch autoscroll
font size
0
reset
how to read this tab
guitar tuner
×
Best way to learn
"2112 Vi Soliloquy"
Autoscroll
slow
fast
+/-
esc
set tempo
stop
Author
Soliloquy
There appears to be phaser throughout this part (except for the guitar doing the soloing)

   D              C     G/B       Dm/F   Em7          D
e|-----2----------------------------------------------2-----|
B|-------3~----------------------------3--------------3-----|
G|---2------2~-0------0-----0--------2------0---------2-----|
D|-0----------------2-----0---0----3-----2~----0h3p0--0-----|
A|----------------3-----2~----------------------------------|
E|----------------------------------------------------------|
                                                                \
After the first time it goes like this:                           4
   D              C     G/B       Dm/F   Em7           D        / times
e|-2---------------------------------------------------2----|     3rd+4th
B|---3--------3-----------------------3----------------3----|     times
G|-----2----2---0-----0-----0-------2-------0----------2----|     w/lyrics
D|-------0~---------2-----0---0---3------2~-----0h3p0--0----|
A|----------------3-----2~----------------------------------|
E|----------------------------------------------------------|
The sleep is still in my eyes, the dream is still in my head.
I heave a sigh and sadly smile, and lie a while in bed.

   Am7          C/G         F                    C5  G5
e|--------0-----------0-------------1------------------------|
B|----------1-----------1-------------1---1------------------| 3
G|-----0------0-----0------------2------2--------5-----------| times
D|-2-2------------2------------3------------3~---5---5-------| with
A|-0------------------------3--------------------3---5-------| lyrics
E|--------------3-----------1------------------------3-------|
I wish that it might come to pass, not fade like all my dreams.
Just think of what my life might be, in a world like I have seen.
I don't think I can carry on, carry on this cold and empty life.
Oh, no...

   Am7          C/G         F                    C5  G5
e|--------0-----------0-------------1------------------------|
B|----------1-----------1-------------1---1------------------| 5
G|-----0------0-----0------------2------2--------5-----------| times
D|-2-2------------2------------3------------3~---5---5-------| under
A|-0------------------------3--------------------3---5-------| solo
E|--------------3-----------1------------------------3-------|

  [Solo]
e|-------------------------------------------------------------------|
B|-------------------------------------------------------------------|
G|-------------------------------------------------------------------|
D|-----------------------------------3-5--5~~----5h7~~---5h7-7-5-7~~-|
A|---------------------x\--------3-5---------------------------------|
E|--3-3-3-3-3-3-3h5~---x\--5~~---------------------------------------|

e|-------------------------------------------------------------------|
B|-------------------------------------------------------------------|
G|------5---5--7b9r7p5---5--7b9~~~r7--7b9--7b9r7--7-7-7-7b9r7--5-5-5-|
D|--7-5---7------------7---------------------------------------------|
A|-------------------------------------------------------------------|
E|-------------------------------------------------------------------|

e|-----------------|-------------------------------------12-15-------|
B|-----------------|------13-15-15b17r15p13----13-15b17--------------|
G|-7-7b9r7-5-------|--/14-------------------14-----------------------|
D|-----------7-5-7-|-------------------------------------------------|
A|-----------------|-------------------------------------------------|
E|-----------------|-------------------------------------------------|

e|-15b17r15b17~~--15b17~-15b17~----17b19~-17b19~~~~--17-17b19-17-----|
B|-------------------------------------------------------------------|
G|-------------------------------------------------------------------|
D|-------------------------------------------------------------------|
A|-------------------------------------------------------------------|
E|-------------------------------------------------------------------|

e|-18b20~~--18b20~--18b20~-18b20~--|---------------------------------|
B|---------------------------------|-------8~----8~------------------|
G|---------------------------------|-------7b9~~~~----7b9--7~--5--[7]|
D|---------------------------------|---------------------------------|
A|---------------------------------|---x\----------------------------|
E|---------------------------------|---x\----------------------------|

e|---------------------------|
B|---------------------------|
G|------5-7b9-7p5-5----------|
D|--5h7-------------7-5-7~---|
A|---------------------------|
E|---------------------------|

e|-------------------------------------------------------------------|
B|-------------------------------------------------------------------|
G|-----5-5-5-5-----5-5-5------5-7b9r7p5---5-7b9r7-7p5---5-7b9r7p5---5|
D|-5h7---------5h7--------5h7-----------7-------------7-----------7--|
A|-------------------------------------------------------------------|
E|-------------------------------------------------------------------|

e|-------------------------------------------------------------------|
B|-------------------------------------------------------------------|
G|-[7b9]~~~----------------------------------------------------------|
D|-------------------------------------------------------------------|
A|-------------------------------------------------------------------|
E|-------------------------------------------------------------------|
  [end solo]

   Am7         C/G                                        E5
e|-------0-----------0-----------------------------------------|
B|---------1-----------1---------------------------------------|
G|-----0-----0-----0------2--2-2-2-2-2-2-2-2-2-2-2-2-2-2-------|
D|-2-2-----------2--------3--3-3-3-3-3-3-3-3-3-3-3-3-3-3--2~---|
A|-0----------------------3--3-3-3-3-3-3-3-3-3-3-3-3-3-3--2~---|
E|-------------3----------1--1-1-1-1-1-1-1-1-1-1-1-1-1-1--0~---|
My spirits are low in the depths of despair, my lifeblood... spills over.
Suggest correction
Give kudos to tab author, rate the tab!
1 2 3 4 5
comments
print report bad tab
guest
You may want to rate the tab now too:
select rating
Wanna post a correction for this tab? Suggest correction