Oops, an error
Loading. Please wait.

A Passage To Bangkok Tab

version 2
version 2

Whole song

Interactive

by Rush
39,529 views 58 this week
12 commentsread comments
1 2 3 4 5
excellent!
x 35
add to favorites
launch autoscroll
font size
0
reset
how to read this tab
guitar tuner
Tab Pro tools
  • play this tab
  • loop segment
  • change instrument
  • show fretboard
  • metronome
×
Best way to learn
"A Passage To Bangkok"
Autoscroll
slow
fast
+/-
esc
set tempo
stop
Contributor
Difficulty
intermediate
A Passage To Bangkok
Rush
tabbed by thelordofguitar

Intro Riff                            'Eastern sounds'
------------------------------------|-10-10-10-10-9-9-------9--------|
------------------------------------|--8--8--8--8-7-7-10-10-7--------|
------------------------------------|------------------7--7----------|
------------------------------------|--------------------------------|
----7---5---7->-2-2-----------------|--------------------------------|
0-0---0---0---------0-0-8-0-7-8->-3-|--------------------------------|

>From 'The natives smile..'

-------_--------------|----------------------------------------------|
-8-7--8-7--------_----|----------------------------------------------|
----------8-9-8-9-8---|----------------------------------------------|
--------------------9-|----------------------------------------------|
----------------------|----------------------------------------------|
----------------------|----------------------------------------------|

>From 'Sweet Jamaican pipedreams..'

-----------------3-|-------------------------------------------------|
9-7-9->-4--5-5-5-3-|-------------------------------------------------|
9-7-9->-4--5-5-5-4-|-------------------------------------------------|
9-7-9->-4--5-5-5-5-|-------------------------------------------------|
7-5-7->-2--3-3-3-5-|-------------------------------------------------|
-----------------3-|-------------------------------------------------|

Chorus

-2-3-7-5-2-3-2-3-0-2--2-3-7-8-7-2-3-0-|------------------------------|
-3-5-8-7-3-3-3-0-2-3--3-5-8-8-8-3-0-2-|------------------------------|
-2-5-7-7-2-3-2-0-2-2--2-5-7-7-7-2-0-2-|------------------------------|
-0-0-0-0-0-0-0-0-2-0--0-0-0-0-0-0-0-2-|------------------------------|
---------------2-0----------------2-0-|------------------------------|
---------------3------------------3---|------------------------------|

Solo

---------------------------------------------------------------------|
10---------------------------------_-_-_-_-_-_--12-!-----------------|
-9->-(11)->-9-7-7->-(9)->-7---7->-4-7-4-7-4-7-4----------------------|
----------------------------9----------------------------------------|
---------------------------------------------------------------------|
---------------------------------------------------------------------|

---10-12-10----10----------------------_-----------------------------|
12----------12----12->-(15)->-12-!---14-12_----12--------------------|
-------------------------------------------13-----14->-(16)->-14-----|
---------------------------------------------------------------------|
---------------------------------------------------------------------|
---------------------------------------------------------------------|


---------------------------------------------------------------------|
12-10----------------------------------------------------------------|
------11-9-11-9->-(11)->-9-!-->-11-9->-(11)-9-9->-(11)->-9--9-8-7----|
---------------------------------------------------------------------|
---------------------------------------------------------------------|
---------------------------------------------------------------------|


---------------------------------------------------------------------|
---------------------------------------------------------------------|
---------------------------------------------------------------------|
9-8-7----------------------------------------------------------------|
------9-8-7--------------------_-----------_---------------_---------|
------------11-10-9-7--7-7-7--7-9--9-9-9--9-10--10-10-10-10-12-12-12-|


---------------------------------------------------------------------|
--------------------------_------------------------------------------|
--------7---7-9->-(11)->-9-7_----------------------------------------|
----7-9---9------------------7---------------------------------------|
9-9------------------------------------------------------------------|
---------------------------------------------------------------------|

                                                               _  _
----------------------------------------7-9-10-10->-(12)-10-7-7-10-7_---7-|
-----------7-10-10->-(12)->-10-7---7-10------------------------------10---|
9-9->-(11)-----------------------9----------------------------------------|
--------------------------------------------------------------------------|
--------------------------------------------------------------------------|
--------------------------------------------------------------------------|


------10-----------------------------_------------_-----------_------|
10-12----12->-(15)->-12--12-12-12--10-12-12-12--12-10_---10-10-7-----|
------------------------------------------------------11-------------|
---------------------------------------------------------------------|
---------------------------------------------------------------------|
---------------------------------------------------------------------|


---------------------------------------------------------------------|
-_---------------10----------10----------10----------10-10-----------|
9-7_--7-9->-(11)----9->-(11)----9->-(11)----9->-(11)-----9->-(11)----|
----9----------------------------------------------------------------|
---------------------------------------------------------------------|
---------------------------------------------------------------------|


-------------------------------------17----------_----------------------|
---------10-10-------------17->-(19)----(19)->-17-15_---15-----------15-|
9->-(11)-----9->-(11)->-16---------------------------16----14->-(16)----|
------------------------------------------------------------------------|
------------------------------------------------------------------------|
------------------------------------------------------------------------|


------------------------------------------------------------------_---|
----------15-----------15------------12-12-10----10-12->-(14)->-12-10-|
14->-(16)----14->-(16)----14->-(16)-----------11----------------------|
----------------------------------------------------------------------|
----------------------------------------------------------------------|
----------------------------------------------------------------------|


--2-|----------------------------------------------------------------|
--3-|----------------------------------------------------------------|
9-2-|----------------------------------------------------------------|
--0-|---------0-0-1-1-2----------------------------------------------|
----|-0-0-4-4--------------------------------------------------------|
----|----------------------------------------------------------------|

---
Explanation on used symbols:

|  - A pair of these indicate a part of music, not the usuals bars.
:  - Indicates that a part is to be repeated. This may be ommited, you should
     hear it too.
_  - Indicates a hammer-on or pull-off (You should know which is appropriate)
>  - Indicates a bend-up or down or a slide. With a bend, the note to bend to
     is between '(' and ')'. Use the whammy for a downbend. With a slide, the
     follow-up note is the one to be slid to.
!  - Indicates vibrato.
^  - Indicates harmonics. Is printed below the note.
comments
print report bad tab
12 comments total. Showing first comments. show 2 bad comments
+6 reply
ginotech wrote on December 9 2006, 09:40 am

if you play the riff that way, it sounds crappy because there are no slides. i don't get how playing it his way could be that hard.

I want to post or [tab]
guest
You may want to rate the tab now too:
select rating
Please do not post tabs as comments. Select "correction" instead!