Oops, an error
Loading. Please wait.

A Passage To Bangkok Tab

version 3
version 3

Whole song

Interactive

by Rush
6,385 views 12 this week
no commentswrite comment
1 2 3 4 5
please rate
add to favorites
launch autoscroll
font size
0
reset
how to read this tab
guitar tuner
Autoscroll
slow
fast
+/-
esc
set tempo
stop
Help us to improve Ultimate-Guitar.com Take our survey!
×
Author
A Passage To Bangkok
Rush

Tablature Legend
----------------
 h   - hammer-on
 p   - pull-off
 b   - bend
 pb  - pre-bend
 r   - bend release (if no number after the r, then release immediately)
 /\  - slide into or out of 
 ~   - vibrato
 PM  - palm muting
 x   - on rhythm slash represents muted slash

Main Riff:
 
e|-----------------------------------------------------------|
B|-----------------------------------------------------------|
G|-----------------------------------------------------------|
D|-----------------------------------------------------------| x2
A|--------7----5----7\2~--2------3----2----3p2---------------|
E|--0--0-----0----0--------0--0-----0----0-----3-------------|

Little riff played over the Main Riff.

e|--10-10-10-10---9--9----------9-\----|
B|--10-10-10-10---10-10--10-10--10\----|
G|-----------------------11-11---------|
D|-------------------------------------|
A|-------------------------------------|
E|-------------------------------------|

Played over Main Riff

e|-----------------------------------------------------------|
B|-8--7~--7--8\4~~--4-4-5--4~--4--5p4------------------------|
G|------------------------------------4~---------------------|
D|-----------------------------------------------------------| x2
A|-----------------------------------------------------------|
E|-----------------------------------------------------------|


e|--------------------------------------------------------------|
B|--------------------------------------------------------------|
G|-9---9-9---7---7-7---9\4---4--4-4--5--5-5-5--5-5-5-5----------|
D|-9---9-9---7---7-7---9\4---4--4-4--5--5-5-5--5-5-5-5--5--5-5--| x2
A|-7---7-7---5---5-5---7\2---2--2-2--3--3-3-3--3-3-3-3--5--5-5--|
E|------------------------------------------------------3--3-3--|

Chorus:

e|-------------------------------------------------------------------|
B|-------8--12-----------8-7--------------------2---2---3--3-3-3-3---|
G|-7--7--7--11--14\7-7---7-7--------------------2---2---2--2-2-2-2---|
D|-7--7--5--9---14\7-7---7-7--------------------2---2---2--2-2-2-2---|
A|-5--5---------12\5-5---5-5--5---5--5---5--5---0---0---0--0-0-0-0---|
E|----------------------------3---2--3---2--3------------------------|


e|---------------------------------------------------------------|
B|-------8--12--13--12\------------------------------------------|
G|-7--7--7--11--12--11\--7--7--7\-------------------7--2---------|
D|-7--7--5--9---10--9-\--7--7--7\-------------------7--2---------|
A|-5--5------------------5--5--5\--5---5--5---5--5--5--0---------|
E|---------------------------------3---2--3---2--3---------------|


e|-----------------------------------------------------------|
B|-----------------------------------------------------------|
G|-----------------------------------------------------------|
D|-----------------------------------------------------------| x2
A|--------7----5----7\2~--2------3----2----3p2---------------|
E|--0--0-----0----0--------0--0-----0----0-----3-------------|


Played over Main Riff

e|-----------------------------------------------------------|
B|-8--7~--7--8p7-----------5--4~--4--5p4---------------------|
G|---------------8~---8--8----------------4~-----------------|
D|-----------------------------------------------------------| x2
A|-----------------------------------------------------------|
E|-----------------------------------------------------------|


e|--------------------------------------------------------------|
B|--------------------------------------------------------------|
G|-9---9-9---7---7-7---9\4---4--4-4--5--5-5-5--5-5-5-5----------|
D|-9---9-9---7---7-7---9\4---4--4-4--5--5-5-5--5-5-5-5--5--5-5--| x2
A|-7---7-7---5---5-5---7\2---2--2-2--3--3-3-3--3-3-3-3--5--5-5--|
E|------------------------------------------------------3--3-3--|

Chorus:

e|-------------------------------------------------------------------|
B|-------8--12-----------8-7--------------------2---2---3--3-3-3-3---|
G|-7--7--7--11--14\7-7---7-7--------------------2---2---2--2-2-2-2---|
D|-7--7--5--9---14\7-7---7-7--------------------2---2---2--2-2-2-2---|
A|-5--5---------12\5-5---5-5--5---5--5---5--5---0---0---0--0-0-0-0---|
E|----------------------------3---2--3---2--3------------------------|


e|---------------------------------------------------------------|
B|-------8--12--13--12\------------------------------------------|
G|-7--7--7--11--12--11\--7--7--7\-------------------7--2---------|
D|-7--7--5--9---10--9-\--7--7--7\-------------------7--2---------|
A|-5--5------------------5--5--5\--5---5--5---5--5--5--0---------|
E|---------------------------------3---2--3---2--3---------------|

Guitar riff during solo:
(Every other time the "timing" changes, listen to the song to get it right.)

e|---------------------------------------------------------------|
B|---------------------------------------------------------------|
G|-4-4--4--4-4-----------------------------2-2--2--7-------------|
D|-4-4--4--4-4---4-4--4--4-4--5-5--5--5-5--2-2--2--7-------------| x5
A|-2-2--2--2-2---4-4--4--4-4--5-5--5--5-5--0-0--0--5-------------|
E|---------------2-2--2--2-2--3-3--3--3-3------------------------|

SOLO:
(It's not 100% correct, but it's very close.)
e|-----------------------------------------------------------|
B|--10-----10-10-10-----------------------10b12~~~~----------|
G|--9b11r9-7--9--7----7~~~---4h6-4h7p4h7p4-------------------|
D|------------------9----------------------------------------|
A|-----------------------------------------------------------|
E|-----------------------------------------------------------|


e|----10--12--10----9b10r9------7h10p7----7------------------|
B|-12------------12--------------------10---10b12r10---------|
G|-----------------------------------------------------------|
D|-----------------------------------------------------------|
A|-----------------------------------------------------------|
E|-----------------------------------------------------------|


e|------------------------------------------------------------------------|
B|--10b12-10-7--7---------------------------------------------------------|
G|-------------9--9b11r9--9b11-9b11-9-9b11r9-9-8-7------------------------|
D|--------------------------------------------------9-8-7-----------------|
A|---------------------------------------------------------9-8-7----------|
E|----------------------------------------------------------------10-9-7--|


e|-----------------------------------------------------|
B|-----------------------------------------------------|
G|-----------------------------------------------------|
D|-----------------------------------------------------|
A|-0h2-2--2--2-2--2-2/4-4--2h4--4-4--4-4/5-5--5--5-5---|
E|-----------------------------------------------------|


e|-------------------------------------|
B|-------------------------------------|
G|-------------------------------------|
D|-------------------------------------|
A|--5-5/7-7-7-7-7-7-7/9-9-9-9-9-9------|
E|-------------------------------------|

Fast part
e|-----------------------------------7----------------7-9-10/12----|
B|-----------------------------7--10---10b12r10p7--10--------------|
G|-----7---7--9b11r9p7-9-9b11--------------------------------------|
D|-7h9---9---------------------------------------------------------|
A|-----------------------------------------------------------------|
E|-----------------------------------------------------------------|


e|--10-7h10p7------------------------------------------------|
B|------------10-10b12~~--10/12-13b15-13b15-12-12-12~~~------|
G|-----------------------------------------------------------|
D|-----------------------------------------------------------|
A|-----------------------------------------------------------|
E|-----------------------------------------------------------|


e|---------------------------------------------------------|
B|-10h12-12-12-12p10-10-10-------------------10--10---10---|
G|-------------------------11p9-------9b11-------9b11------|
D|------------------------------12-9-----------------------|
A|---------------------------------------------------------|
E|---------------------------------------------------------|


e|--------------------------------14-17-------17----------------|
B|--10---10--10---10------17b19---------17b19----17--12h15p12---|
G|--9b11-----9b11----9b11---------------------------------------|
D|--------------------------------------------------------------|
A|--------------------------------------------------------------|
E|--------------------------------------------------------------|


e|--------------------------------------------------------------|
B|-12~-15~-12~-15~-12~-15~-12-12-12~-12-------------------------|
G|--------------------------------------14-11----11-14b16~~\----|
D|--------------------------------------------14----------------|
A|--------------------------------------------------------------|
E|--------------------------------------------------------------|

e|--10-10-10-10---9--9----------9-\----|
B|--10-10-10-10---10-10--10-10--10\----|
G|-----------------------11-11---------|
D|-------------------------------------|
A|-------------------------------------|
E|-------------------------------------|

Chorus:

e|-------------------------------------------------------------------|
B|-------8--12-----------8-7--------------------2---2---3--3-3-3-3---|
G|-7--7--7--11--14\7-7---7-7--------------------2---2---2--2-2-2-2---|
D|-7--7--5--9---14\7-7---7-7--------------------2---2---2--2-2-2-2---|
A|-5--5---------12\5-5---5-5--5---5--5---5--5---0---0---0--0-0-0-0---|
E|----------------------------3---2--3---2--3------------------------|


e|---------------------------------------------------------------|
B|-------8--12--13--12\------------------------------------------|
G|-7--7--7--11--12--11\--7--7--7\-------------------7--2---------|
D|-7--7--5--9---10--9-\--7--7--7\-------------------7--2---------|
A|-5--5------------------5--5--5\--5---5--5---5--5--5--0---------|
E|---------------------------------3---2--3---2--3---------------|


e|-9---9--10--10-10-10-10-9-------|
B|-10--10-10--10-10-10-10-10------|
G|-9---9--9---9--9--9--9--9-------|
D|--------------------------------|
A|--------------------------------|
E|--------------------------------|


e|--------------------------------------------------------------------|
B|-------8--12-----------8-7------------------------------------------|
G|-7--7--7--11--14\7-7---7-7------------------------------------------|
D|-7--7--5--9---14\7-7---7-7------------------------------------------|
A|-5--5---------12\5-5---5-5--5---5--5---5--5---0--0-4--4-5--5-6--6-7-|
E|----------------------------3---2--3---2--3-------------------------|


e|---------------------------------------------------------------|
B|-------8--12--13--12\------------------------------------------|
G|-7--7--7--11--12--11\--7--7--7\-------------------7--2---------|
D|-7--7--5--9---10--9-\--7--7--7\-------------------7--2---------|
A|-5--5------------------5--5--5\--5---5--5---5--5--5--0---------|
E|---------------------------------3---2--3---2--3---------------|


e|-----------------------------------------------------------|
B|-----------------------------------------------------------|
G|-2-2-2-2-2-2-2-2--2-2------------------------9--7----------|
D|-2-2-2-2-2-2-2-2--2-2------------------------9--7----------|
A|-0-0-0-0-0-0-0-0--0-0-------5---5--5---5--5--7--5----------|
E|----------------------------3---2--3---2--3----------------|
 PM|---------------------|


The End!
Suggest correction
Give kudos to tab author, rate the tab!
1 2 3 4 5
comments
print report bad tab
guest
You may want to rate the tab now too:
select rating
Wanna post a correction for this tab? Suggest correction