Oops, an error
Loading. Please wait.

Armor And Sword Tab

version 1
version 1

Whole song

Interactive

by Rush
7,951 views 3 this week
6 commentsread comments
1 2 3 4 5
accurate
x 4
add to favorites
launch autoscroll
font size
0
reset
how to read this tab
guitar tuner
Tab Pro tools
  • play this tab
  • loop segment
  • change instrument
  • show fretboard
  • metronome
Autoscroll
slow
fast
+/-
esc
set tempo
stop
Contributor
"Armor and Sword" by Rush

(No rhythm is given, but you should be able to figure it out from the song.)

Intro:

e|----------------------5-----|----------------------5-----|
B|-5-7-5-7-8-5-5--5-7-5-5-5-8-|-5-7-5-7-8-5-5--5-7-5-5-5-8-|
G|-5-5-5-5-5-5-5--5-5-5---5-5-|-5-5-5-5-5-5-5--5-5-5---5-5-|
D|----------------------------|----------------------------|
A|----------------------------|----------------------------|
E|----------------------------|----------------------------|

e|-5-7-5-7-8--5-7-5-10-10-10--|----------------------5-----|
B|-6-6-6-6-6--6-6-6-10-10-10--|-5-7-5-7-8-5-5--5-7-5-5-5-8-|
G|----------------------------|-5-5-5-5-5-5-5--5-5-5---5-5-|
D|----------------------------|----------------------------|
A|----------------------------|----------------------------|
E|----------------------------|----------------------------|

   C                            Em

e|----------------------------|----------------------------|
B|-13~------------------------|-12~------------------------|
G|----------------------------|----------------------------|
D|----------------------------|----------------------------|
A|----------------------------|----------------------------|
E|----------------------------|----------------------------|

   D

e|-14-------------------------|----------------------------|
B|----15~---------------------|----------------------------|
G|----------------------------|-----------0----------------|
D|----------------------------|--------0-----4-------------|
A|----------------------------|-----5-----------5----------|
E|----------------------------|--5-------------------------|

 C                              Em

e|----------------------------|----------------------------|
B|-13~------------------------|-12~------------------------|
G|----------------------------|----------------------------|
D|----------------------------|----------------------------|
A|----------------------------|----------------------------|
E|----------------------------|----------------------------|

   D                             C

e|-14-------------------------|----------------------------|
B|----15~---------------------|----------------------------|
G|----------------------------|----------------------------|
D|----------------------------|----------------------------|
A|----------------------------|----------------------------|
E|----------------------------|----------------------------|

Verse (Acoustic):

e|------------------------------|-----------------------------|
B|-----0--0--0--0------0-0-0-0--|----0--0--0--0------0-0-0-0--|
G|o-----------------------------|-----------------------------|
D|o----4--2--4--0----2-4-5-4-0--|----4--2--4--0----2-4-5-4-0--|
A|-----------------3------------|----------------3------------|
E|--0---------------------------|-0---------------------------|

e|------------------------------|
B|----0--0--0--0----------------|
G|--------------------0-----0--o|
D|----4--2--4--0----2-----0----o|
A|----------------3-----2-------|
E|-0----------------------------|

Pre-Chorus (Electric):

|: E5 G5 F5 A5 :|  repeat throughout

Chorus:

 C                            Em

e|----------------------------|----------------------------|
B|-13~------------------------|-12~------------------------|
G|----------------------------|----------------------------|
D|----------------------------|----------------------------|
A|----------------------------|----------------------------|
E|----------------------------|----------------------------|

   D

e|-14-------------------------|----------------------------|
B|----15~---------------------|----------------------------|
G|----------------------------|-----------0----------------|
D|----------------------------|--------0-----4-------------|
A|----------------------------|-----5-----------5----------|
E|----------------------------|--5-------------------------|

C Em D C

(Our better natures...) 

C                              Em

e|----------------------------|----------------------------|
B|-13~------------------------|-12~------------------------|
G|----------------------------|----------------------------|
D|----------------------------|----------------------------|
A|----------------------------|----------------------------|
E|----------------------------|----------------------------|

   D                            N.C.

e|-14-------------------------|----------------------------|
B|----15~---------------------|----------------------------|
G|----------------------------|----------------------------|
D|----------------------------|----------------------------|
A|----------------------------|----------------------------|
E|----------------------------|----------------------------|

Interlude:

|: C5 Eb5 B5 Ab5 :| repeat throughout

~~~~~~~~~~~~~~~~~~~~~~~~~~~~~~~~~~~~~~~~~~~~~~~~~~~~~~~~~~~
comments
print report bad tab
6 comments total. Showing first comments.
+1 reply
evanmiles wrote on August 17 2007, 04:11 pm

hey i was just screwin around and i think the acoustic part sounds more correct when played as follows :
e|------------------------------------------------------|
B|------------------------------------------------------|
G|---4-4-4-4------------------4-4-4-4-------------------|
D|---4-2-4-2------2-4-2-0-----4-2-4-2------2-4-2-0------|
A|---2-2-2-2----3-------------2-2-2-2----3--------------|
E|-0-0-0-0-0--3-------------0-0-0-0-0--3----------------|

hope that helps..

rush ruuuuuuulllllessssss

+1 reply
evanmiles wrote on August 17 2007, 04:16 pm

a little addition ahh
e|------------------------------------------------------|
B|------------------------------------------------------|
G|---4-4-4-4------------------4-4-4-4-------------------|
D|---4-2-4-2------2-4-2-0-----4-2-4-2------2-4-2-0------|
A|---2-2-2-2----3-------------2-2-2-2----3--------------|
E|-0-0-0-0-0--3-------------0-0-0-0-0--3----------------|

e|------------------------------------------------------|
B|------------------------------------------------------|
G|---4-4-4-4------------------4-4-4-4------0-----0------|
D|---4-2-4-2------2-4-2-0-----4-2-4-2----------0--------|
A|---2-2-2-2----3-------------2-2-2-2----3---2----------|
E|-0-0-0-0-0--3-------------0-0-0-0-0--3----------------|

there thats better

+1 reply
synthesis wrote on August 22 2007, 11:03 pm

i agree- that way is a bit more accurate. lifeson's acoustic stuff is usually difficult to figure out. thanks.

I want to post or [tab]
guest
You may want to rate the tab now too:
select rating
Please do not post tabs as comments. Select "correction" instead!