Oops, an error
Loading. Please wait.

Bastille Day bass

version 2
version 2

Whole song

Interactive

by Rush
402 views 6 this week
no commentswrite comment
1 2 3 4 5
3 more votes to show rating
add to favorites
×
Save as Personal and add changes to this tab that will be seen only by you. Learn more ›
×
You can save this tab as Personal to edit and correct it or add notes. All changes will be seen only by you. Learn more »
launch autoscroll
font size
0
reset
guitar tuner
backing track
0:00
0:00
edit
Autoscroll
slow
fast
+/-
esc
set tempo
stop
Author
Difficulty

G|-----------------------------------------------------------------|
D|-----------------------------------------------------------------|
A|-----------------------------------------------------------------|
E|-------------------------------------------------3-----2-----0---|
   1 + 2 + 3 + 4 + 1 + 2 + 3 + 4 + 1 + 2 + 3 + 4 + 1 + 2 + 3 + 4 +

G|-----------------------------------------------------------------|
D|-----------------------------------------------------------------|
A|-----------------------------------------------------------------|
E|-------------------------------------------------3-3-3-2-----0---|
   1 + 2 + 3 + 4 + 1 + 2 + 3 + 4 + 1 + 2 + 3 + 4 + 1 + 2 + 3 + 4 +

G|-----------------------------------------------------------------|
D|-----------------------------------------------------------------|
A|-----------------------------------------------------------------|
E|-------------------------------------------------5--55-4-----2---|
   1 + 2 + 3 + 4 + 1 + 2 + 3 + 4 + 1 + 2 + 3 + 4 + 1 + 2 + 3 + 4 +

G|-----------------------------------------------------------------|
D|-----------------------------------------------------------------|
A|-----------------------------------------------------------------|
E|-------------------------------------------------5-5-5-4-----2---|
   1 + 2 + 3 + 4 + 1 + 2 + 3 + 4 + 1 + 2 + 3 + 4 + 1 + 2 + 3 + 4 +

G|---------------------------------------------------------7-9-7-----|
D|---------------------------------------------------------------9\--|
A|-------------------------------------------------------------------|
E|-0-----------------------------------------------------------------|
   1 + 2 + 3 + 4 + 1 + 2 + 3 + 4 + 1 + 2 + 3 + 4 + 1 + 2 + Tripl 4 +

G|-------------------------------------------------7-9-7---------------|
D|-------------------------------------------------------9---7-9-7-----|
A|-----------------------------------------------------------------10\-|
E|---------------------------------------------------------------------|
   1 + 2 + 3 + 4 + 1 + 2 + 3 + 4 + 1 + 2 + 3 + 4 + Tripl 2 + Tripl 4 +

0:26 Main Riff/verse
G|-------------------------------------------------------------------|
D|o---------------------------------------------------------7-7-----o|x3
A|o-------------3---3-5---5-----5---------------3---3-5---5-----7---o|
E|--0---0-3---3-------------5-------0-0-0-3---3----------------------|
    1 + 2 + 3 + 4 + 1 + 2 + 3 + 4 + 1 + 2 + 3 + 4 + 1 + 2 + 3 + 4 +

G|---------------------------------------------------------7-5-4---|
D|---------------------------------------------------------------7-|
A|-------------3---3-5---5-----5---------------3---3-5---5---------|
E|-0---0-3---3-------------5-------0-0-0-3---3---------------------|
   1 + 2 + 3 + 4 + 1 + 2 + 3 + 4 + 1 + 2 + 3 + 4 + 1 + 2 + 3 + 4 +

0:45 Chorus
G|-------------------------------4-5-----------5---4---5-4---------|
D|-5-----------5---4-------4-5-7-------------5---5---------7-7-----|
A|-----------5---5-------5-----------------------------------------|
E|-----------------------------------------------------------------|
   1 + 2 + 3 + 4 + 1 + 2 + 3 + 4 + 1 + 2 + 3 + 4 + 1 + 2 + 3 + 4 +

G|-------------------------------------7-----6-----5-----4---------|
D|-5-----------5-6-7-------7-5-4-------------------------------7---|
A|-----------5-------------------7-5-------------------------------|
E|-----------------------------------------------------------------|
   1 + 2 + 3 + 4 + 1 + 2 + 3 + 4 + 1 + 2 + 3 + 4 + 1 + 2 + 3 + 4 +

G|-------------------------------4-5-----------5---4---5-4---------|
D|-5-----------5---4-------4-5-7-------------5---5---------7-7-----|
A|-----------5---5-------5-----------------------------------------|
E|-----------------------------------------------------------------|
   1 + 2 + 3 + 4 + 1 + 2 + 3 + 4 + 1 + 2 + 3 + 4 + 1 + 2 + 3 + 4 +

G|-------------------------------------7-6---5-4-------------------|
D|-5-----------5-6-7-------7-5-4-----------------7-----------------|
A|-----------5-------------------7-5---------------5---------------|
E|-----------------------------------------------------------------|
   1 + 2 + 3 + 4 + 1 + 2 + 3 + 4 + 1 + 2 + 3 + 4 + 1 + 2 + 3 + 4 +

Interlude 1:05
G|---------------------------------------------------------7-9-7-----|
D|---------------------------------------------------------------9\--|
A|-------------------------------------------------------------------|
E|-------------------------------------------------------------------|
   1 + 2 + 3 + 4 + 1 + 2 + 3 + 4 + 1 + 2 + 3 + 4 + 1 + 2 + Tripl 4 +

G|-------------------------------------------------7-9-7-----7-9-7-----|
D|-------------------------------------------------------9---------9\--|
A|---------------------------------------------------------------------|
E|---------------------------------------------------------------------|
   1 + 2 + 3 + 4 + 1 + 2 + 3 + 4 + 1 + 2 + 3 + 4 + Tripl 2 + Tripl 4 +

1:15 Verse
G|-----------------------------------------------------------------|
D|---------------------------------------------------------7-------|
A|-------------3---3-5---5-----5---------------3---3-5---5-----7---|
E|-0---0-3---3-------------5-------0-0-0-3---3---------------------|
   1 + 2 + 3 + 4 + 1 + 2 + 3 + 4 + 1 + 2 + 3 + 4 + 1 + 2 + 3 + 4 +

G|---------------------------------------------------------7-7-7-5-7-5-|
D|---------------------------------------------------------------------|
A|-------------3---3-5---5-----5---------------3---3-5---5-------------|
E|-0---0-3---3-------------5-------0-0-0-3---3-------------------------|
   1 + 2 + 3 + 4 + 1 + 2 + 3 + 4 + 1 + 2 + 3 + 4 + 1 + 2 + Tripl Tripl

1:25 Chorus
G|-------------------------------4-5-----------5---4---5-4---------|
D|-5-----------5---4-------4-5-7-------------5---5---------7-7-----|
A|-----------5---5-------5---------------------------------------5-|
E|-----------------------------------------------------------------|
   1 + 2 + 3 + 4 + 1 + 2 + 3 + 4 + 1 + 2 + 3 + 4 + 1 + 2 + 3 + 4 +

G|-------------------------------------7-7-7-6-6-6-5-5-5-4-4-4-----|
D|-5-----------5-6-7-------7-5-4-------------------------------7---|
A|-----------5-------------------7-5-------------------------------|
E|-----------------------------------------------------------------|
   1 + 2 + 3 + 4 + 1 + 2 + 3 + 4 + 1 + 2 + 3 + 4 + 1 + 2 + 3 + 4 +

G|-------------------------------4-5-----------5---4---5-4---------|
D|-5-----------5---4-------4-5-7-------------5---5---------7-7-----|
A|-----------5---5-------5---------------------------------------5-|
E|-----------------------------------------------------------------|
   1 + 2 + 3 + 4 + 1 + 2 + 3 + 4 + 1 + 2 + 3 + 4 + 1 + 2 + 3 + 4 +

G|-------------------------------------7-7-5-4---------------------|
D|-5-----------5-6-7-------7-5-4---------------7-------------------|
A|-----------5-------------------7-5---------------5---------------|
E|-----------------------------------------------------------------|
   1 + 2 + 3 + 4 + 1 + 2 + 3 + 4 + 1 + 2 + 3 + 4 + 1 + 2 + 3 + 4 +

1:44 Interlude
G|-----------------5-----4---------------------7-------7---7-\-----|
D|-5-----4-------------------------5-----7-----------7---7---------|
A|-----------------------------------------------------------------|
E|-----------------------------------------------------------------|
   1 + 2 + 3 + 4 + 1 + 2 + 3 + 4 + 1 + 2 + 3 + 4 + 1 + 2 + 3 + 4 +

G|-----------------------------------------------------------------|
D|-5-----4-------------------------5-----7---\-2-------------------|
A|-----------------3-----2-----------------------------------------|
E|-----------------------------------------------------------------|
   1 + 2 + 3 + 4 + 1 + 2 + 3 + 4 + 1 + 2 + 3 + 4 + 1 + 2 + 3 + 4 +

1:55 Solo
G|----------------------------------------------------------------------|
D|-------6---7-9-------9---9-------------6-7-9-10--------10-9-10--------|
A|-7-----------------9---------9-8-7---7--------------10-----------10-9-|
E|----------------------------------------------------------------------|
   1 + 2 + 3 + 4 + 1 + 2 + 3 + 4 + 1 + 2 + 3 + 4  + 1 +  2  + 3  + 4  +

G|-----------------------------------------------------------------|
D|-------4---5-7-------7-6-7-------5-\-----------------------------|
A|-5---5-------------7---------7---------3-/---7-------7---7-------|
E|---------------------------------------------------7---------7---|
   1 + 2 + 3 + 4 + 1 + 2 + 3 + 4 + 1 + 2 + 3 + 4 + 1 + 2 + 3 + 4 +

G|---------------------------------------------------------------9-------|
D|-------6---7-9-------9-8-9-------------6-7-9-10--------10-9-10---10----|
A|-7-----------------9---------9-\-7---7--------------10--------------10-|
E|-----------------------------------------------------------------------|
   1 + 2 + 3 + 4 + 1 + 2 + 3 + 4 + 1 + 2 + 3 + 4  + 1 +  2  + 3  + 4  +

G|-----------------------------------------------------------------|
D|-------4---5-7-------7-6-7-------5-\-----------------------------|
A|-5---5-------------7---------7-\-------3-/---7-------------------|
E|-----------------------------------------------------------------|
   1 + 2 + 3 + 4 + 1 + 2 + 3 + 4 + 1 + 2 + 3 + 4 + 1 + 2 + 3 + 4 +

2:15
G|-------------------------------------------------------------------|
D|o-----------------------------------------------4-5-5---4---4-----o|
A|o-5-4-----------4-5-4-----------4-5-4-------5-7---------------7---o|
E|------4-5---5---------4-5---5---------4-5--------------------------|
    1 + 2 + 3 + 4 + 1 + 2 + 3 + 4 + 1 + 2 + 3 + 4 + 1 + 2 + 3 + 4 +

G|-------------------------------------------------------------------|
D|o-------------------------------------------------7-7---6---6-4---o|
A|o-7-6-----------6-7-6-----------6-7-6---------7-------------------o|
E|------6-7---7---------6-7---7---------6-7---7---7------------------|
    1 + 2 + 3 + 4 + 1 + 2 + 3 + 4 + 1 + 2 + 3 + 4 + 1 + 2 + 3 + 4 +

G|-----------------------------------------------------------------|
D|-----------------------------------------------------------------|
A|-5-4-----------4-5-4-----------4-5-4-----------------------------|
E|-----4-5---5---------4-5---5---------4-5---5---------------------|
   1 + 2 + 3 + 4 + 1 + 2 + 3 + 4 + 1 + 2 + 3 + 4 + 1 + 2 + 3 + 4 +

G|-----------------------------------------------------------------|
D|-----------------------------------------------------------------|
A|-7-6-----------6-7-6-----------6-7-6-----------------------------|
E|-----6-7---7---------6-7---7---------6-7---7---------------------|
   1 + 2 + 3 + 4 + 1 + 2 + 3 + 4 + 1 + 2 + 3 + 4 + 1 + 2 + 3 + 4 +

G|-----------------------------------------------------------------|
D|-----------------------------------------------------------------|
A|-3-2-----------2-3-2-----------2-3-2-----------------------------|
E|-----2-3---3---------2-3---3---------2-3---3-----------------8-\-|
   1 + 2 + 3 + 4 + 1 + 2 + 3 + 4 + 1 + 2 + 3 + 4 + 1 + 2 + 3 + 4 +

2:47 Main Riff
G|-----------------------------------------------------------------|
D|---------------------------------------------------------7---7---|
A|-------------3---3-5---5-----5---------------3---3-5---5---7-----|
E|-0---0-3---3-------------5-5-----0-0-0-3---3---------------------|
   1 + 2 + 3 + 4 + 1 + 2 + 3 + 4 + 1 + 2 + 3 + 4 + 1 + 2 + 3 + 4 +

G|-----------------------------------------------------------------|
D|---------------------------------------------------------7---7---|
A|-------------3---3-5---5---------------------3---3-5---5---7-----|
E|-0---0-3---3-------------5-5-3-2-0-0-0-3---3---------------------|
   1 + 2 + 3 + 4 + 1 + 2 + 3 + 4 + 1 + 2 + 3 + 4 + 1 + 2 + 3 + 4 +

G|-------------------------------------------------------7-5-4-5-4-|
D|-----------------------------------------------------------------|
A|-------------3---3-5---5---------------------3---3-5-------------|
E|-0---0-3---3-------------5---3---0-0-0-3---3---------------------|
   1 + 2 + 3 + 4 + 1 + 2 + 3 + 4 + 1 + 2 + 3 + 4 + 1 + 2 + 3 + 4 +

3:02 Chorus
G|-------------------------------4-5-----------5---4---5-4---------|
D|-5-----------5---4-------4-5-7-------------5---5---------7-7-----|
A|-----------5---5-------5-----------------------------------------|
E|-----------------------------------------------------------------|
   1 + 2 + 3 + 4 + 1 + 2 + 3 + 4 + 1 + 2 + 3 + 4 + 1 + 2 + 3 + 4 +

G|-------------------------------------7-7-7-5-5---4-4---5-4-5-4---|
D|-5-----------5-6-7-------7-5-4---------------------------------7-|
A|-----------5-------------------7-5-------------------------------|
E|-----------------------------------------------------------------|
   1 + 2 + 3 + 4 + 1 + 2 + 3 + 4 + 1 + 2 + 3 + 4 + 1 + 2 + 3 + 4 +

G|-------------------------------4-5-----------5---4---5-4---------|
D|-5-----------5---4-------4-5-7-------------5---5---------7-7-----|
A|-----------5---5-------5-----------------------------------------|
E|-----------------------------------------------------------------|
   1 + 2 + 3 + 4 + 1 + 2 + 3 + 4 + 1 + 2 + 3 + 4 + 1 + 2 + 3 + 4 +

G|-------------------------------------7-7-5-7-7-5-7-7-----------------|
D|-5-----------5-6-7-------7-5-4---------------------------------------|
A|-----------5-------------------7-5-------------------5---------------|
E|---------------------------------------------------------------------|
   1 + 2 + 3 + 4 + 1 + 2 + 3 + 4 + 1 + 2 + Tripl Tripl 1 + 2 + 3 + 4 +


3:22 Interlude
G|-----------------5-----4---------------------7-------7---7-\-----|
D|-5-----4-------------------------5-----7-----------7---7---------|
A|-----------------------------------------------------------------|
E|-----------------------------------------------------------------|
   1 + 2 + 3 + 4 + 1 + 2 + 3 + 4 + 1 + 2 + 3 + 4 + 1 + 2 + 3 + 4 +

G|-----------------------------------------------------------------|
D|-5-----4-------------------------5-----7---\-0-------------------|
A|-----------------3-----2-----------------------------------------|
E|-----------------------------------------------------------------|
   1 + 2 + 3 + 4 + 1 + 2 + 3 + 4 + 1 + 2 + 3 + 4 + 1 + 2 + 3 + 4 +

3:31
G|-------------------------------------------------------------------|
D|o-----------------------------------------------4-5-5---4---4-----o|
A|o-5-4-----------4-5-4-----------4-5-4-------5-7---------------7---o|
E|------4-5---5---------4-5---5---------4-5--------------------------|
    1 + 2 + 3 + 4 + 1 + 2 + 3 + 4 + 1 + 2 + 3 + 4 + 1 + 2 + 3 + 4 +

G|-------------------------------------------------------------------|
D|o-------------------------------------------------7-7---6---6-4---o|
A|o-7-6-----------6-7-6-----------6-7-6---------7-------------------o|
E|------6-7---7---------6-7---7---------6-7---7---7------------------|
    1 + 2 + 3 + 4 + 1 + 2 + 3 + 4 + 1 + 2 + 3 + 4 + 1 + 2 + 3 + 4 +

3:50
G|-----------------------------------------------------------------|
D|-----------------------------------------------------------------|
A|-4-5-------------4-5-------------4-5-----------------------------|
E|-----3-4-5---5-------3-4-5---5-------3-4-5---5-------------------|
   1 + 2 + 3 + 4 + 1 + 2 + 3 + 4 + 1 + 2 + 3 + 4 + 1 + 2 + 3 + 4 +

G|-----------------------------------------------------------------|
D|-----------------------------------------------------------------|
A|-6-7-------------6-7-------------6-7-----------------------------|
E|-----5-6-7---7-------5-6-7---7-------5-6-7---7-------------------|
   1 + 2 + 3 + 4 + 1 + 2 + 3 + 4 + 1 + 2 + 3 + 4 + 1 + 2 + 3 + 4 +

G|-----------------------------------------------------------------|
D|-----------------------------------------------------------------|
A|-7-8-------------7-8-------------7-8-----------------------------|
E|-----6-7-8---8-------6-7-8---8-------6-7-8---8-------------------|
   1 + 2 + 3 + 4 + 1 + 2 + 3 + 4 + 1 + 2 + 3 + 4 + 1 + 2 + 3 + 4 +

4:05
G|-----------------------------4---5-----------5---4---5-4---------|
D|-5-----------5---4-------5-7---------------5---5---------7-7-----|
A|-----------------------------------------------------------------|
E|-----------------------------------------------------------------|
   1 + 2 + 3 + 4 + 1 + 2 + 3 + 4 + 1 + 2 + 3 + 4 + 1 + 2 + 3 + 4 +

G|-------------------------------------7-7-7-7-7-7-7-7-5-5-4-4-----|
D|-5-----------5-6-7-------7-5-4-------------------------------7-7-|
A|-----------5-------------------7-5-------------------------------|
E|-----------------------------------------------------------------|
   1 + 2 + 3 + 4 + 1 + 2 + 3 + 4 + 1 + 2 + 3 + 4 + 1 + 2 + 3 + 4 +

G|-----------------------------4---5-----------5---4---5-4---------|
D|-5-----------5---4-------5-7---------------5---5---------7-7-----|
A|-----------5-----------------------------------------------------|
E|-----------------------------------------------------------------|
   1 + 2 + 3 + 4 + 1 + 2 + 3 + 4 + 1 + 2 + 3 + 4 + 1 + 2 + 3 + 4 +

G|-----------------------------------------------------------------|
D|-5-----------12\-0-----------7---5-------------------------------|
A|-------------------------------------3h4-5-----------------------|
E|---------------------------------------------5p4-3---------------|
   1 + 2 + 3 + 4 + 1 + 2 + 3 + 4 + 1 + 2 + 3 + 4 + 1 + 2 + 3 + 4 +

G|-----------------------------------------------------------------|
D|-----------------------------------------------------------------|
A|-----------------------------------------------------------------|
E|-------------------------------------------------3---------------|
   1 + 2 + 3 + 4 + 1 + 2 + 3 + 4 + 1 + 2 + 3 + 4 + 1 + 2 + 3 + 4 +

            
            
Suggest correction
Creating personal tab
Creating personal tab
You can edit any tab online and save it as your Personal.

You can edit, replace or remove any tab part or add personal notes – all changes will be seen only by you.

Personal tabs can be accessed anytime from any device, even offline.
Learn more »
Give kudos to tab author, rate the tab!
1 2 3 4 5
comments
print report bad tab
guest
You may want to rate the tab now too:
select rating
Wanna post a correction for this tab? Suggest correction