Oops, an error
Loading. Please wait.

Bastille Day tab

version 3
version 3

Whole song

Interactive

by Rush
19,020 views 3 this week
2 commentsread comments
1 2 3 4 5
x 11
add to favorites
×
Save as Personal and add changes to this tab that will be seen only by you. Learn more ›
×
You can save this tab as Personal to edit and correct it or add notes. All changes will be seen only by you. Learn more »
launch autoscroll
font size
0
reset
how to read this tab
guitar tuner
backing track
0:00
0:00
edit
Autoscroll
slow
fast
+/-
esc
set tempo
stop
Author
||-----------------|----------------|----------------|-----------------||
||o----------------|----------------|----------------|----------------o||
||-----------------|----------------|----------------|-----------------||
||-----------------|----------------|----------------|-----------------||
||o----------------|----------------|----------------|----------------o||
||--3h5-5-5--5-5-5-|-3h5-5-5--5-5-5-|-3h5-5-5--5-5-5-|-3-3-3-2--2-0----||


    N.C.
    E E E Q  E E E   E E E Q  E E E   E E E Q  E E E   E E E Q  E Q
||-----------------|----------------|----------------|-----------------||
||o----------------|----------------|----------------|----------------o||
||-----------------|----------------|----------------|-----------------||
||-----------------|----------------|----------------|-----------------||
||o----------------|----------------|----------------|----------------o||
||--5h7-7-7--7-7-7-|-5h7-7-7--7-7-7-|-5h7-7-7--7-7-7-|-5-5-5-4--4-2----||


Verses I & II
  Q=200
  $
  E5   G5   C5/G     D5/A A5 D5/A     E5    G5   C5/G     D5/A A5
  Q  E Q.   Q    +E  Q  E Q  E +E     E E E Q.   Q    +E  Q  E Q     Q
|--------------|--------------------|---------------|--------------------|
|--------------|--------------------|---------------|--------------------|
|-----------5--|-(5)-7--7----7-(7)\-|------------5--|-(5)-7--7-----------|
|-2--x-5----5--|-(5)-7--7-7--7-(7)\-|-2-2-2-5----5--|-(5)-7--7-7-----7\--|
|-2--x-5----3--|-(3)-5--5-7--5-(5)\-|-2-2-2-5----3--|-(3)-5--5-7-----7\--|
|-0--0-3----3--|-(3)-5--5-5--5-(5)\-|-0-0-0-3----3--|-(3)-5--5-5---------|
|
| Gtr II
|                                                              |-3-|
| W               W                   W                H       E E E Q
|--------------|--------------------|---------------|--------------------|
|--------------|--------------------|---------------|----------x-x-x-x---|
|--------------|--------------------|---------------|----------x-x-x-x---|
|--------------|--------------------|---------------|----------x-x-x-x---|
|--------------|--------------------|---------------|----------x-x-x-x---|
|--------------|--------------------|---------------|--------------------|


  E5   G5   C5/G     D5/A A5 D5/A
  Q  E Q.   Q    +E  Q  E Q  E +E

|--------------|--------------------|
|--------------|--------------------|
|-----------5--|-(5)-7--7----7-(7)\-|
|-2--x-5----5--|-(5)-7--7-7--7-(7)\-|
|-2--x-5----3--|-(3)-5--5-7--5-(5)\-|
|-0--0-3----3--|-(3)-5--5-5--5-(5)\-|
|
| Gtr II
| W               W
|--------------|--------------------|
|--------------|--------------------|
|--------------|--------------------|
|--------------|--------------------|
|--------------|--------------------|
|--------------|--------------------|


                                    To Coda
  E5    G5   C5/G       D5/A    A5
  E E E Q.   Q    +E    Q     E Q     Q
|---------------|---------------------------|
|---------------|---------------------------|
|------------5--|-(5)---7-----7-------------|
|-2-2-2-5----5--|-(5)---7-----7-7-----7\----|
|-2-2-2-5----3--|-(3)---5-----5-7-----7\----|
|-0-0-0-3----3--|-(3)---5-----5-5-----------|
|
|                  |--3---|     |-3-|
| W                E  E   E E E E E E E  E

|---------------|---------------------------|
|---------------|--x--x---x-x---x-x-x-x-----|
|---------------|--x--x---x-x---x-x-x-x-----|
|---------------|--x--x---x-x---x-x-x-x-----|
|---------------|--x--x---x-x---x-x-x-x-----|
|---------------|---------------------------|


  E5   G5   C5/G     D5/A A5 D5/A     E5    G5   C5/G     D5/A A5
  Q  E Q.   Q    +E  Q  E Q  E +E     E E E Q.   Q    +E  Q  E Q  Q
|--------------|--------------------|---------------|-----------------|
|--------------|--------------------|---------------|-----------------|
|-----------5--|-(5)-7--7----7-(7)\-|------------5--|-(5)-7--7--------|
|-2--x-5----5--|-(5)-7--7-7--7-(7)\-|-2-2-2-5----5--|-(5)-7--7-7--7\--|
|-2--x-5----3--|-(3)-5--5-7--5-(5)\-|-2-2-2-5----3--|-(3)-5--5-7--7\--|
|-0--0-3----3--|-(3)-5--5-5--5-(5)--|-0-0-0-3----3--|-(3)-5--5-5------|


  E5   G5   C5/G     D5/A A5 D5/A     E5    G5   C5/G     D5/A A5
  Q  E Q.   Q    +E  Q  E Q  E +E     E E E Q.   Q    +E  Q  E Q  Q
|--------------|--------------------|---------------|-----------------|
|--------------|--------------------|---------------|-----------------|
|-----------5--|-(5)-7--7----7-(7)\-|------------5--|-(5)-7--7--------|
|-2--x-5----5--|-(5)-7--7-7--7-(7)\-|-2-2-2-5----5--|-(5)-7--7-7--7\--|
|-2--x-5----3--|-(3)-5--5-7--5-(5)\-|-2-2-2-5----3--|-(3)-5--5-7--7\--|
|-0--0-3----3--|-(3)-5--5-5--5-(5)--|-0-0-0-3----3--|-(3)-5--5-5------|


  &
  E5   G5   C5/G     D5/A A5 D5/A     E5    G5   C5/G     D5/A A5
  Q  E Q.   Q    +E  Q  E Q  E +E     E E E Q.   Q    +E  Q  E Q  Q
|--------------|--------------------|---------------|-----------------|
|--------------|--------------------|---------------|-----------------|
|-----------5--|-(5)-7--7----7-(7)\-|------------5--|-(5)-7--7--------|
|-2--x-5----5--|-(5)-7--7-7--7-(7)\-|-2-2-2-5----5--|-(5)-7--7-7--7\--|
|-2--x-5----3--|-(3)-5--5-7--5-(5)\-|-2-2-2-5----3--|-(3)-5--5-7--7\--|
|-0--0-3----3--|-(3)-5--5-5--5-(5)--|-0-0-0-3----3--|-(3)-5--5-5------|



  E5   G5   C5/G     D5/A A5 D5/A     E5    G5   C5/G     D5/A A5
  Q  E Q.   Q    +E  Q  E Q  E +E     E E E Q.   Q    +E  Q  E Q  Q
|--------------|--------------------|---------------|----------------|
|--------------|--------------------|---------------|----------------|
|-----------5--|-(5)-7--7----7-(7)\-|------------5--|-(5)-7--7----0--|
|-2--x-5----5--|-(5)-7--7-7--7-(7)\-|-2-2-2-5----5--|-(5)-7--7-7--0--|
|-2--x-5----3--|-(3)-5--5-7--5-(5)\-|-2-2-2-5----3--|-(3)-5--5-7-----|
|-0--0-3----3--|-(3)-5--5-5--5-(5)--|-0-0-0-3----3--|-(3)-5--5-5-----|


Chorus
  Q=190
  G              Gsus2/FG      C              G/B    N.C.
  H.       Q      H     H      H.       Q      H     H
|--------------|-------------|--------------|-------------|
|-3-------(3)--|-(3)---------|-1-------(1)--|-------------|
|-0-------(0)--|-(0)---------|-0-------(0)--|-(0)---------|
|-0-------(0)--|-(0)---------|-2--------2---|--0-----0----|
|-2--------2---|--0-----2----|-3--------3---|--2-----0----|
|-3--------3---|--2-----3----|--------------|-------------|


  G5               A5           D
  H.      E +E     H.      Q    Q  E Q  E Q    E Q  E E E E E
|----------------|------------|--------------|----------------|
|----------------|------------|-7----7----7--|---7----7---7---|
|----------------|------------|-7----7----7--|---7--7-7-7-7-7-|
|-5-------5-(5)/-|-7-------7--|-7--7-7--7-7--|-7-7--7-7-7-7-7-|
|-5-------5-(5)/-|-7-------7--|-5--5-5--5-5--|-5-5--5---5---5-|
|-3-------3-(3)/-|-5-------5--|--------------|----------------|


  G              Gsus2/FG      C              G/B    N.C.
  H.       Q      H     H      H.       Q      H     H
|--------------|-------------|--------------|-------------|
|-3-------(3)--|-(3)---------|-1-------(1)--|-------------|
|-0-------(0)--|-(0)---------|-0-------(0)--|-(0)---------|
|-0-------(0)--|-(0)---------|-2--------2---|--0-----0----|
|-2--------2---|--0-----2----|-3--------3---|--2-----0----|
|-3--------3---|--2-----3----|--------------|-------------|


                                            D.S. al Coda
  G5               A5           D
  H.      E +E     H.      Q    Q  E Q  E E E   E. S H.
|----------------|------------|---------------|-------------|
|----------------|------------|-7--7-7--7-7-7-|-7-----------|
|----------------|------------|-7--7-7--7-7-7-|-7-----------|
|-5-------5-(5)/-|-7-------7--|-7--7-7--7-7-7-|-7-----------|
|-5-------5-(5)/-|-7-------7--|-5--5-5--5-5-5-|-5-----------|
|-3-------3-(3)/-|-5-------5--|---------------|-------------|


Bridge
  G    Gsus2/F#  C    G/B       G5   A5   D
  Q.   Q  Q.     Q.   Q  Q.     E Q  E Q  Q    +E  E E E E Q.
|--------------|--------------|--------------|------------------|
|--------------|--------------|-----------7--|-(7)-7-7-7-7------|
|-0----0-------|-0----0-------|-----------7--|-(7)-7-7-7-7------|
|-0----0-------|-2----0-------|-5----7----7--|-(7)-7-7-7-7------|
|-2----0-------|-3----2-------|-5----7----5--|-(5)-5-5-5-5------|
|-3----2-------|--------------|-3----5-------|------------------|


  G    Gsus2/F#  C    G/B       G5   A5      E5
  Q.   Q  Q.     Q.   Q  Q.     E Q  Q  +E   Q    +W
|--------------|--------------|-----------------|--------|
|--------------|--------------|-----------------|--------|
|-0----0-------|-0----0-------|-----------------|--------|
|-0----0-------|-2----0-------|-5----7--(7)\-2--|-(2)----|
|-2----0-------|-3----2-------|-5----7--(7)\-2--|-(2)----|
|-3----2-------|--------------|-3----5--(5)\-0--|-(0)----|


  Em                B
  Gtr III
   E     Q    E Q   Q        +E   E E E E Q.
|--------------------------|------7-7-7-7-7----|
|--7h====8----8-8---7------|-(7)--7-7-7-7-7----|
|--7h====9----9-9---8------|-(8)--8-8-8-8-8----|
|--7h====9----9-9---9------|-(9)--9-9-9-9-9----|
|--7----(7)---7-7---9------|-(9)---------------|
|-------------------7------|-(7)---------------|
|
| Gtr II

|  Q        E E E E Q        +Q     Q   H
|--7--------7-7-7-7--------|--------7---7------|
|--8--------8-8-8-8-7------|-(7)----7---7------|
|--9--------9-9-9-9-8------|-(8)----8---8------|
|--9--------9-9-9-9-9------|-(9)----9---9------|
|--7--------7-7-7-7-9------|-(9)----9---9------|
|-------------------7------|-(7)---------------|
|
| Gtr IV
|  H.               Q        +W
|--------------------------|-------------------|
|--8----------------7------|-(7)---------------|
|-10b12-------------9b11===|=(9)r--------------|
|--------------------------|-------------------|
|--------------------------|-------------------|
|--------------------------|-------------------|


  Em                CVIII
   E     Q    E Q    Q          +E    E  Q     E  Q.
|----------------------------|-----------------8--8----|
|--7h====8----8-8----8-------|--(8)------------8--8----|
|--7h====9----9-9----9-------|--(9)------------9--9----|
|--7h====9----9-9---10-------|-(10)--10-10-------------|
|--7----(7)---7-7---10-------|-(10)--10-10-------------|
|--------------------8-------|--(8)---8--8-------------|
|
|  E     E  E E E E  E     E     E    E  E  E  E  Q.
|--7-----7--7-7-7-7--8-----8-|---8----8--8--8--8--8----|
|--8-----8--8-8-8-8--8-----8-|---8----8--8--8--8--8----|
|--9-----9--9-9-9-9--9-----9-|---9----9--9--9--9--9----|
|--9-----9--9-9-9-9-10----10-|--10---10-10-10-10-10----|
|--7-----7--7-7-7-7-10----10-|--10---10-10-10-10-10----|
|----------------------------|-------------------------|
|
|  H.                Q          +W
|----------------------------|-------------------------|
|--8-----------------5-------|--(5)--------------------|
|-10b12--------------7b9=====|==(7)r-------------------|
|----------------------------|-------------------------|
|----------------------------|-------------------------|
|----------------------------|-------------------------|


  D           A                         C     D     Em

  H.          Q       +E   E E E H      Q.    Q.    Q       +W
|-------------------|------------5----|-------------------|---------|
|-7-----------5-----|-(5)----5---5----|-5-----7-----------|---------|
|-7-----------6-----|-(6)--6-6-6-6----|-5-----7-----0-----|-(0)-----|
|-7-----------7-----|-(7)--7-7-7-7----|-5-----7-----2-----|-(2)-----|
|-5-----------7-----|-(7)--7-7-7-7----|-3-----5-----2-----|-(2)-----|
|-------------5-----|-(5)--5---5------|-------------0-----|-(0)-----|
|
| Q.     Q.   Q       +Q     Q   H      Q.    Q.    Q       +W
|-2------2----0-----|-(0)--------0----|-0-----2-----0-----|-(0)-----|
|-3------3----2-----|-(2)----2---2----|-1-----3-----0-----|-(0)-----|
|-2------2----2-----|-(2)----2---2----|-0-----2-----0-----|-(0)-----|
|-0------0----2-----|-(2)----2---2----|-2-----0-----2-----|-(2)-----|
|-------------0-----|-(0)----0--------|-3-----------2-----|-(2)-----|
|-------------------|-----------------|-------------0-----|-(0)-----|
|

| H.          Q       +W                Q.    Q.    Q       +W
|-------------------|-----------------|-------------------|---------|
|-7-----------5-----|-(5)-------------|-1-----3-----5-----|-(5)-----|
|-9b11--------7b9===|=(7)r------------|-3b5---5b7---7b9===|=(7)r----|
|-------------------|-----------------|-------------------|---------|
|-------------------|-----------------|-------------------|---------|
|-------------------|-----------------|-------------------|---------|


  Em                B
  Gtr III
   E     Q    E Q   Q         +E   E E E E Q.
|---------------------------|------7-7-7-7-7----|
|--7h====8----8-8---7-------|-(7)--7-7-7-7-7----|
|--7h====9----9-9---8-------|-(8)--8-8-8-8-8----|
|--7h====9----9-9---9-------|-(9)--9-9-9-9-9----|
|--7----(7)---7-7---9-------|-(9)---------------|
|-------------------7-------|-(7)---------------|
|
| Gtr II
|  Q        E E E E E     E    E   E E E E Q.
|--7--------7-7-7-7---------|--7---7-7-7-7-7----|
|--8--------8-8-8-8-7-----7-|--7---7-7-7-7-7----|
|--9--------9-9-9-9-8-----8-|--9---9-9-9-9-8----|
|--9--------9-9-9-9-9-----9-|--9---9-9-9-9-9----|
|--7--------7-7-7-7-9-----9-|--9---9-9-9-9-9----|
|-------------------7-------|-------------------|
|
| Gtr IV
|  H.               Q         +W
|---------------------------|-------------------|
|--8----------------7-------|-(7)---------------|
|-10b12-------------9b11====|=(9)r--------------|
|---------------------------|-------------------|
|---------------------------|-------------------|
|---------------------------|-------------------|


  Em                    CVIII
   E     Q     E    Q    Q        +E    E  Q   E  Q.
|------------------------------|---------------8--8----|
|--7h====8-----8----8----8-----|--(8)----------8--8----|
|--7h====9-----9----9----9-----|--(9)----------9--9----|
|--7h====9-----9----9---10-----|-(10)--10-10-----------|
|--7----(7)----7----7---10-----|-(10)--10-10-----------|
|------------------------8-----|--(8)---8--8-----------|
|
|  Q        E  E    E E  Q        +Q       Q   E  Q.
|--7--------7--7----7-7--8-----|--(8)------8---8--8----|
|--8--------8--8----8-8--8-----|--(8)------8---8--8----|
|--9--------9--9----9-9--9-----|--(9)------9---9--9----|
|--9--------9--9----9-9-10-----|-(10)-----10--10-10----|
|--7--------7--7----7-7-10-----|-(10)-----10--10-10----|
|------------------------------|-----------------------|
|
|  Q.          Q.        Q        +W
|------------------------------|-----------------------|
|--8-----------8---------5-----|--(5)------------------|
|-10b12-------10b12------7b9===|==(7)r-----------------|
|------------------------------|-----------------------|
|------------------------------|-----------------------|
|------------------------------|-----------------------|


  D           A                            C5    D5    E5VII
                                           Gtr I

  H.           Q         +E   E E E H      Q.    Q.    E   E   W
|---------------------|-------------5----|-------------------|------|
|-7------------5------|--(5)----5---5----|-------------------|------|
|-7------------6------|--(6)--6-6-6-6----|-5-----7-----9-----|------|
|-7------------7------|--(7)--7-7-7-7----|-5-----7-----9-----|------|
|-5------------7------|--(7)--7-7-7-7----|-3-----5-----7-----|------|
|--------------5------|--(5)--5---5------|-------------------|------|
|
| Q.     Q.    Q         +Q     Q   H      Q.    Q.    E   E   W
|-2------2-----0------|--(0)--------0----|-0-----2-----------|------|
|-3------3-----2------|--(2)----2---2----|-1-----3-----------|------|
|-2------2-----2------|--(2)----2---2----|-0-----2-----------|------|
|-0------0-----2------|--(2)----2---2----|-2-----0-----2-----|------|
|--------------0------|--(0)----0--------|-3-----------2-----|------|
|---------------------|------------------|-------------0-----|------|
|

| H.           Q         +W                Q.    Q.    E   E   W
|---------------------|------------------|-------------------|------|
|-7-----------10------|-(10)-------------|-1-----3-----5-----|------|
|-9b11--------12b14===|=(12)r------------|-3b5---5b7---7b9---|------|
|---------------------|------------------|-------------------|------|
|---------------------|------------------|-------------------|------|
|---------------------|------------------|-------------------|------|


  D5      A5     D5        A5         D5
  Gtr I
  E E  E  E E Q   E    E E  E  E E Q   E
|--------------------|--------------------|
|--------------------|--------------------|
|-7-7-------------x--|-7-7-------------x--|
|-7-7--x--7---7---x--|-7-7--x--7---7---x--|
|-5-5--x--7---7--(5)-|-5-5--x--7---7--(5)-|
|-----(5)-5---5------|-----(5)-5---5------|
|
| Gtr IV
| W                    W
|--------------------|--------------------|
|--------------------|--------------------|
|--------------------|--------------------|
|--------------------|--------------------|
|--------------------|--------------------|
|--------------------|--------------------|


                     Guitar Solo
      A5              G5        G5/F#
  E E  E  E E Q.      E   E   E E   E   E Q
|------------------||-----------------------------|
|------------------||-----------------------------|
|-7-7--------------||-----------------------------|
|-7-7--x--7---7\---||---------5---------5---------|
|-5-5--x--7---7\---||-----5---------5-------------|
|-----(5)-5---5\---||-3---------2---------0-------|
|
| W                   S S S Q     S S S E S S S S
|------------------||-----------------------------|
|------------------||-8-7-5-------8-7-5---8-7-5---|
|------------------||-----------------------------|
|------------------||-----------------------------|
|------------------||-----------------------------|
|------------------||-----------------------------|



  D5      A5         D5          A5            D5
  E     E  E  E E Q   E     E  E  E  E E Q      E
|------------------------|-------------------------|
|------------------------|-------------------------|
|-7-----7-------------x--|--7--7----------------x--|
|-7-----7--x--7---7---x--|--7--7--x--7---7------x--|
|-5-----5--x--7---7--(5)-|--5--5--x--7---7-----(5)-|
|---------(5)-5---5------|-------(5)-5---5---------|
|
| W                        +H.             +Q
|------------------------|-------------------------|
|-8b10===================|=(8)-------------(8)r====|
|------------------------|-------------------------|
|------------------------|-------------------------|
|------------------------|-------------------------|
|------------------------|-------------------------|


      A5                G5    G5/F#
  E E  E  E E Q.        E E E E E  E Q
|---------------------|---------------------|
|---------------------|---------------------|
|-7-7-----------------|---------------------|
|-7-7--x--7---7\------|-----5------5--------|
|-5-5--x--7---7\------|---5-----5-----------|
|-----(5)-5---5\------|-3-----2------0------|
|
| E E  E  E E S S E E   E E E E Q.     +E
|---------------------|---------------------|
|-8-8--8--8---8p5---5-|---------------------|
|-----------------7---|-7-6---6-------------|
|---------------------|-----7---7------(7)/-|
|---------------------|---------------------|
|---------------------|---------------------|


  E5VIB5(type 2)    E5VII     B5(type 2)    E5VII
  E E  E  E  E  Q    E    E E  E  E  E  Q    E
|-----------------------|-----------------------|
|-----------------------|-----------------------|
|-9-9----------------x--|-9-9----------------x--|
|-9-9--x--9-----9----x--|-9-9--x--9-----9----x--|
|-7-7--x--9-----9---(7)-|-7-7--x--9-----9---(7)-|
|-----(7)-7-----7-------|-----(7)-7-----7-------|
|
|                         ~
| H         +E  E E  E    H         +E  E Q
|-----------------------|-----------------------|
|-----------------------|-7---------(7)-5-7-----|
|-----------------8--9--|-----------------------|
|-9---------(9)-9-------|-----------------------|
|-----------------------|-----------------------|
|-----------------------|-----------------------|


          B5(type 2)                A5      A5/Ab
  E   E    E      E E   Q.           E  E E E E E Q
|---------------------------------|-------------------|
|---------------------------------|-------------------|
|-9---9---------------------------|-------------------|
|-9---9----x------9-----9\--------|-------7-----7-----|
|-7---7----x------9-----9\--------|-----7-----7-------|
|---------(7)-----7-----7\--------|--5------4-----2---|
|
|                                    ~~~
|                   |---3---|
| E.    E     E.    Q      +E  Q    +W
|---------------------------------|-------------------|
|-7b9---7-----7b9---7b9r===(7)p5--|-(5)---------------|
|---------------------------------|-------------------|
|---------------------------------|-------------------|
|---------------------------------|-------------------|
|---------------------------------|-------------------|


  E5VII   B5(type 2)      E5VII           B5(type 2)      E5VII
   E    E  E   E     E Q    E      E    E  E   E     E Q    E
|-------------------------------|-------------------------------|
|-------------------------------|-------------------------------|
|--9----9-------------------x---|--9----9-------------------x---|
|--9----9--x---9-------9----x---|--9----9--x---9-------9----x---|
|--7----7--x---9-------9---(7)--|--7----7--x---9-------9---(7)--|
|---------(7)--7-------7--------|---------(7)--7-------7--------|
|
|              ~~~~~~                          ~~~~~~
|  Q       E   H           +E      Q       E   H           +E
|-------------------------------|-------------------------------|
|-10b12-------10b12=======(10)r-|-10b12-------10b12=======(10)r-|
|-------------------------------|-------------------------------|
|-------------------------------|-------------------------------|
|-------------------------------|-------------------------------|
|-------------------------------|-------------------------------|


        B5(type 2)        A5    A5/Ab
   E  E  E E    E Q.      E E E E E E Q
|-----------------------|-------------------|
|-----------------------|-------------------|
|--9--9-----------------|-------------------|
|--9--9--x-9------9\----|-----7-----7-------|
|--7--7--x-9------9\----|---7-----7---------|
|-------(7)7------7\----|-5-----4-----2-----|
|
|  E  E  E S  S E E E E   E E E H       +E
|-----------------------|-------------------|
|-10-10-----------------|-------------------|
|-------11p9h11p9-9s8-8h|=9-9-9-8-------(8)-|
|-----------------------|-------------------|
|-----------------------|-------------------|
|-----------------------|-------------------|


  D5      A5              D5            A5          D5
  E   E    E  E  E   Q     E    E     E  E  E E Q    E
|-----------------------------|-------------------------|
|-----------------------------|-------------------------|
|-7---7--------------------x--|-7-----7--------------x--|
|-7---7----x--7------7-----x--|-7-----7--x--7---7----x--|
|-5---5----x--7------7----(5)-|-5-----5--x--7---7---(5)-|
|---------(5)-5------5--------|---------(5)-5---5-------|
|
| |--3--|                       |-3-|
| E E   E  E  E.   S E. S  E    S S S E  E  E E E E  E
|-----------------------------|-------------------------|
|--------------------5-----7--|-8p7p5----5--------------|
|-7p6------6--7---------------|-------7-----7p6---6h=7--|
|-------7---------------------|-----------------7-------|
|-----------------------------|-------------------------|
|-----------------------------|-------------------------|


      A5
  E E  E  E E   E Q     W
|---------------------|----------------------|
|---------------------|----------------------|
|-7-7-----------------|----------------------|
|-7-7--x--7-----7-----|----------------------|
|-5-5--x--7-----7-----|----------------------|
|-----(5)-5-----5-----|----------------------|
|
| E E  E  E S S E E E   E E E E E E E E a
|---------------------|----------------------|
|-5-7-----8p7p5---5---|---------5-5-5--------|
|---------------7---7-|-6---6-7-------7-7s===|
|---------------------|---7------------------|
|---------------------|----------------------|
|---------------------|----------------------|


  E5VIIB5(type 2)  E5VII     B5(type 2) E5VII
  E  E  E  E E Q    E    E E  E  E E Q   E
|----------------------|--------------------|
|----------------------|--------------------|
|-9--9--------------x--|-9-9-------------x--|
|-9--9--x--9---9----x--|-9-9--x--9---9---x--|
|-7--7--x--9---9---(7)-|-7-7--x--9---9--(7)-|
|------(7)-7---7-------|-----(7)-7---7------|
|
| Q.       Q   Q.        E E  E  Q   Q   E
|----------------------|--------------------|
|----------------------|--------------------|
|-9--------9---8-------|-9-8-----8----------|
|----------------------|------9------9---9--|
|----------------------|--------------------|
|----------------------|--------------------|


      B5(type 2)
  E E  E  E E  E Q        W
|---------------------|--------------------------|
|---------------------|--------------------------|
|-9-9-----------------|--------------------------|
|-9-9--x--9----9------|--------------------------|
|-7-7--x--9----9------|--------------------------|
|-----(7)-7----7------|--------------------------|
|
| E E  E  Q    Q    E    +S  S S S E E E E E E
|---------------------|--------------------------|
|------7--9---10---10-|-(10)-9p8---7-------------|
|-8-9-----------------|----------9---9p8---8-----|
|---------------------|------------------9---9---|
|---------------------|--------------------------|
|---------------------|--------------------------|


  C5      G5          C5            G5           C5

  E   E    E  E E Q    E    E   E    E E E Q      E
|-------------------------|----------------------------|
|-------------------------|----------------------------|
|-5---5----------------x--|-5---5-----------------x----|
|-5---5----x--5---5----x--|-5---5----x-5---5------x----|
|-3---3----x--5---5---(3)-|-3---3----x-5---5-----(3)---|
|---------(3)-3---3-------|---------(3)3---3-----------|
|
| |--3--|                   |--3--|          |---3---|
| E E   E  E  E Q   E  E    E E   E  E Q   E E E     E
|-------------------------|----------------------------|
|-------------------------|----------------------------|
|-5p4p==0--4--5-4---4--5--|-7p4p==0--5p4---4-4-5p====0-|
|-------------------------|----------------------------|
|-------------------------|----------------------------|
|-------------------------|----------------------------|


            G5
  E   E      E  E   E   E Q       W
|-------------------------------|------------------------|
|-------------------------------|------------------------|
|-5---5-------------------------|------------------------|
|-5---5------x--5-------5-------|------------------------|
|-3---3------x--5-------5-------|------------------------|
|-----------(3)-3-------3-------|------------------------|
|
| |--3---|   |---3----|   |-3-|   |-3-| |-3-| |-3-|
| E E   +E   Q    Q   Q   E E E   E E E E E E E E E Q
|-------------------------------|------------------------|
|-------------------------------|------------------------|
|-4p0---(0)--0----0---0---7p0h7-|-0h7p0h7p0h7-0h7p0-7\---|
|-------------------------------|------------------------|
|-------------------------------|------------------------|
|-------------------------------|------------------------|


Verse III
  Q=200
  E5   G5   C5/G     D5/A A5 D5/A
  Q  E Q.   Q    +E  Q  E Q  E   +E
|--------------|------------------------|
|--------------|------------------------|
|-----------5--|-(5)-7--7----7---(7)\---|
|-2--x-5----5--|-(5)-7--7-7--7---(7)\---|
|-2--x-5----3--|-(3)-5--5-7--5---(5)\---|
|-0--0-3----3--|-(3)-5--5-5--5---(5)\---|
|
|                            |---3----|
| W               H.         E E      E
|--------------|-------------7p5--------|
|--------------|----------------------8-|
|--------------|------------------------|
|--------------|------------------------|
|--------------|------------------------|
|--------------|------------------------|


  E5      G5     C5/G         D5/A A
   E  E E Q.     Q        +E  Q  E H
|-----------------------|----------5-------|
|-----------------------|----------5-------|
|----------------5------|-(5)-7--7-6-------|
|--2--2-2-5------5------|-(5)-7--7-7-------|
|--2--2-2-5------3------|-(3)-5--5-7-------|
|--0--0-0-3------3------|-(3)-5--5-5-------|
|
| +Q.     E  Q.     +E     H.         Q
|-----------------------|------------------|
|-(8)-----8s10-----(10)s|==8---------------|
|-----------------------|------------------|
|-----------------------|------------------|
|-----------------------|------------------|
|-----------------------|------------------|


  E5   G5   C5/G     D5/A A5 D5/A     E5    G5   C5/G     D5/A A5
  Q  E Q.   Q    +E  Q  E Q  E +E     E E E Q.   Q    +E  Q  E Q  Q
|--------------|--------------------|---------------|-----------------|
|--------------|--------------------|---------------|-----------------|
|-----------5--|-(5)-7--7----7-(7)\-|------------5--|-(5)-7--7--------|
|-2--x-5----5--|-(5)-7--7-7--7-(7)\-|-2-2-2-5----5--|-(5)-7--7-7--7\--|
|-2--x-5----3--|-(3)-5--5-7--5-(5)\-|-2-2-2-5----3--|-(3)-5--5-7--7\--|
|-0--0-3----3--|-(3)-5--5-5--5-(5)\-|-0-0-0-3----3--|-(3)-5--5-5------|


  E5   G5   C5/G     D5/A A5 D5/A     E5    G5   C5/G     D5/A A5
  Q  E Q.   Q    +E  Q  E Q  E +E     E E E Q.   Q    +E  Q  E Q  Q
|--------------|--------------------|---------------|----------------|
|--------------|--------------------|---------------|----------------|
|-----------5--|-(5)-7--7----7-(7)\-|------------5--|-(5)-7--7-------|
|-2--x-5----5--|-(5)-7--7-7--7-(7)\-|-2-2-2-5----5--|-(5)-7--7-7--0--|
|-2--x-5----3--|-(3)-5--5-7--5-(5)\-|-2-2-2-5----3--|-(3)-5--5-7--0--|
|-0--0-3----3--|-(3)-5--5-5--5-(5)\-|-0-0-0-3----3--|-(3)-5--5-5-----|


Chorus
  Q=190
  G              Gsus2/FG      C              G/B    N.C.
  H.       Q      H     H      H.       Q      H     H
|--------------|-------------|--------------|-------------|
|-3-------(3)--|-(3)---------|-1-------(1)--|-------------|
|-0-------(0)--|-(0)---------|-0-------(0)--|-(0)---------|
|-0-------(0)--|-(0)---------|-2--------2---|--0-----0----|
|-2--------2---|--0-----2----|-3--------3---|--2-----0----|
|-3--------3---|--2-----3----|--------------|-------------|


  G5               A5           D
  H.      E +E     H.      Q    Q  E Q  E Q    E Q  E E E E E
|----------------|------------|--------------|----------------|
|----------------|------------|-7--7-7--7-7--|-7-7----7---7---|
|----------------|------------|-7--7-7--7-7--|-7-7--7-7-7-7-7-|
|-5-------5-(5)/-|-7-------7--|-7--7-7--7-7--|-7-7--7-7-7-7-7-|
|-5-------5-(5)/-|-7-------7--|-5--5-5--5-5--|-5-5--5---5---5-|
|-3-------3-(3)/-|-5-------5--|--------------|----------------|


  G              Gsus2/FG      C              G/B    N.C.
  H.       Q      H     H      H.       Q      H     H
|--------------|-------------|--------------|-------------|
|-3-------(3)--|-(3)---------|-1-------(1)--|-------------|
|-0-------(0)--|-(0)---------|-0-------(0)--|-(0)---------|
|-0-------(0)--|-(0)---------|-2--------2---|--0-----0----|
|-2--------2---|--0-----2----|-3--------3---|--2-----0----|
|-3--------3---|--2-----3----|--------------|-------------|


  G5            A5           D
  H.      Q     H.      Q    Q  E E E E E E   E H..
|-------------|------------|----------------|----------|
|-------------|------------|-7--7-7-7-7-7-7-|-7--------|
|-------------|------------|-7--7-7-7-7-7-7-|-7--------|
|-5-------5/--|-7-------7--|-7--7-7-7-7-7-7-|-7--------|
|-5-------5/--|-7-------7--|-5--5-5-5-5-5-5-|-5--------|
|-3-------3/--|-5-------5--|----------------|----------|


Bridge
  G    Gsus2/F#  C    G/B       G5   A5   D
  Q.   Q  Q.     Q.   Q  Q.     E Q  E Q  Q    +E  E E E E Q.
|--------------|--------------|--------------|------------------|
|--------------|--------------|-----------7--|-(7)-7-7-7-7------|
|-0----0-------|-0----0-------|-----------7--|-(7)-7-7-7-7------|
|-0----0-------|-2----0-------|-5----7----7--|-(7)-7-7-7-7------|
|-2----0-------|-3----2-------|-5----7----5--|-(5)-5-5-5-5------|
|-3----2-------|--------------|-3----5-------|------------------|


  G    Gsus2/F#  C    G/B       G5   A5   D
  Q.   Q  Q.     Q.   Q  Q.     E Q  E Q  Q    +E  E E E E Q.
|--------------|--------------|--------------|------------------|
|--------------|--------------|-----------7--|-(7)-7-7-7-7------|
|-0----0-------|-0----0-------|-----------7--|-(7)-7-7-7-7------|
|-0----0-------|-2----0-------|-5----7----7--|-(7)-7-7-7-7------|
|-2----0-------|-3----2-------|-5----7----5--|-(5)-5-5-5-5------|
|-3----2-------|--------------|-3----5-------|------------------|


   Breakdown
    Q=200
    D5  A5         D5        A5         D5
    E E  E  E E Q   E    E E  E  E E Q   E
||---------------------|--------------------|
||o--------------------|--------------------|
||--7-7-------------x--|-7-7-------------x--|
||--7-7--x--7---7---x--|-7-7--x--7---7---x--|
||o-5-5--x--7---7--(5)-|-5-5--x--7---7--(5)-|
||------(5)-5---5------|-----(5)-5---5------|


      A5             G5    G5/F#
  E E  E  E E Q.     E E E E E E Q
|------------------|------------------||
|------------------|-----------------o||
|-7-7--------------|------------------||
|-7-7--x--7---7\---|-----5-----5------||
|-5-5--x--7---7\---|---5-----5-------o||
|-----(5)-5---5\---|-3-----2-----0----||


  E5VIB5(type 2) E5VII     B5(type 2) E5VII     B5(type 2)     A5    A5/Ab
  E E  E  E E Q   E    E E  E  E E Q   E    E E  E  E E Q.     E E E E E E Q
|--------------------|--------------------|------------------|----------------|
|--------------------|--------------------|------------------|----------------|
|-9-9-------------x--|-9-9-------------x--|-9-9--------------|----------------|
|-9-9--x--9---9---x--|-9-9--x--9---9---x--|-9-9--x--9---9\---|-----7-----7----|
|-7-7--x--9---9--(7)-|-7-7--x--9---9--(7)-|-7-7--x--9---9\---|---7-----7------|
|-----(7)-7---7------|-----(7)-7---7------|-----(7)-7---7\---|-5-----4-----2--|


  E5VIB5(type 2) E5VII     B5(type 2) E5VII
  E E  E  E E Q   E    E E  E  E E Q   E
|--------------------|--------------------|
|--------------------|--------------------|
|-9-9-------------x--|-9-9-------------x--|
|-9-9--x--9---9---x--|-9-9--x--9---9---x--|
|-7-7--x--9---9--(7)-|-7-7--x--9---9--(7)-|
|-----(7)-7---7------|-----(7)-7---7------|


      B5(type 2)     A5    A5/Ab
                              ~~~

  E E  E  E E Q.     E E E E +Q   E E
|------------------|------------------|
|------------------|------------------|
|-9-9--------------|------------------|
|-9-9--x--9---9\---|-----7------------|
|-7-7--x--9---9\---|---7------------4-|
|-----(7)-7---7\---|-5-----4-(4)--2---|


  N.C.
  E E E E E Q  E   E E E E E Q  E   E E E E E E Q    H..       E
|----------------|----------------|----------------|-------------|
|----------------|----------------|----------------|-------------|
|----------------|----------------|----------------|-------------|
|----------------|----------------|----------------|-------------|
|-5------------4-|-5------------4-|-5--------------|-----------6-|
|---3-4-5---5----|---3-4-5---5----|---3-4-5---5----|-------------|


  N.C.
  E E E E E Q  E   E E E E E Q  E   E E E E E E Q    H..       E
|----------------|----------------|----------------|-------------|
|----------------|----------------|----------------|-------------|
|----------------|----------------|----------------|-------------|
|----------------|----------------|----------------|-------------|
|-7------------6-|-7------------6-|-7--------------|-----------7-|
|---5-6-7---7----|---5-6-7---7----|---5-6-7---7----|-------------|


                                                   H.=H
  N.C.
  E E E E E Q  E   E E E E E Q  E   E E E E E E Q    W
|----------------|----------------|----------------|------|
|----------------|----------------|----------------|------|
|----------------|----------------|----------------|------|
|----------------|----------------|----------------|------|
|-8------------7-|-8------------7-|-8--------------|------|
|---6-7-8---8----|---6-7-8---8----|---6-7-8---8----|------|


Outro
  Q=150
  G            Gsus2/FG      C               G/B    G5/A
  Gtr I
  W            +W            W               +W
|-3----------|-(3)---------|-3-------------|-(3)---------|
|-3----------|-(3)---------|-1-------------|-(1)---------|
|-0----------|-(0)---------|-0--------0----|--0-----0----|
|-0-------0--|--0-----0----|-2--------2----|--0-----0----|
|-2-------2--|--0-----2----|-3--------3----|--2-----0----|
|-3-------3--|--2-----3----|---------------|-------------|
| H.      Q     H     H      H.       Q       H     H
|
| Gtr IV
| H.      Q     H     H      H.       Q       H     H
|------------|-------------|---------------|-------------|
|------------|-------------|---------------|-------------|
|-4-------4--|--2-----4----|-4b5------4b5--|--4-----2----|
|------------|-------------|---------------|-------------|
|------------|-------------|---------------|-------------|
|------------|-------------|---------------|-------------|


  G5              A5           D5 D5/D5tD5/A(D5pe 2D5/AD5yD5/A(type 2)
  H.      E +E    H.      Q    W             +Q    H.
|---------------|------------|-------------|-----------------|
|---------------|------------|-------------|-----------------|

|---------------|------------|-7-----------|-(7)-------------|
|-5-------5-(5)S|=7-------7--|-7--7--7--7--|--7--7-7---7--7--|
|-5-------5-(5)S|=7-------7--|-5--0--5--0--|--5--5-0---5--0--|
|-3-------3-(3)S|=5-------5--|-------------|-----------------|
|                              Q  Q  Q  Q     E  E Q   Q  Q
|
|                                             ~~~
| H.      Q       H.      Q    W             +W
|---------------|------------|-------------|-----------------|
|---------------|------------|-------------|-----------------|
|-4-------4-----|-6-------6--|-7-----------|-(7)-------------|
|---------------|------------|-------------|-----------------|
|---------------|------------|-------------|-----------------|
|---------------|------------|-------------|-----------------|


  G            Gsus2GF#    C            G/B  Csus2/A
  Gtr I
  H.      Q    H    H      H.      Q    H    H
|-3----------|-----------|-0-------0--|-----------|
|-3-------3--|-3----3----|-1-------1--|-1----1----|
|-0-------0--|-0----0----|-0-------0--|-0----0----|
|-0-------0--|-0----0----|-2-------2--|-0----0----|
|-2-------2--|-0----2----|-3-------3--|-2----0----|
|-3-------3--|-2----3----|------------|-----------|
|
| Gtr IV
| H.      Q    H    H      H.      Q    H    H
|-3-------3--|-2----3----|-8-------8--|-7----5----|
|------------|-----------|------------|-----------|
|-4-------4--|-2----4----|-9-------9--|-7----5----|
|------------|-----------|------------|-----------|
|------------|-----------|------------|-----------|
|------------|-----------|------------|-----------|
  H.      Q    H    H      H.      Q    H    H


  G5           D5            G              G
  H.      Q    E E H    Q     W               W
|------------|-------------|--3-----------|---3-----|
|------------|-------------|--3-----------|---3-----|
|------------|-7--------7--|--0-----------|---0-----|
|-5-------5--|-7--------7--|--0-----0-----|---0-----|
|-5-------5--|-5--------5--|--2--4-----0--|---2-----|
|-3-------3--|-------------|--3-----------|---3-----|
|                             Q  Q  Q  Q
|
|                                             ~~~~
| H.      Q    E E H    Q     W              +W
|-7-------7--|-5--------5--|--3-----------|--(3)----|
|------------|-------------|--------------|---------|
|-7-------7--|-5--------5S=|=12-----------|-[12]----|
|------------|-------------|--------------|---------|
|------------|-------------|--------------|---------|
|------------|-------------|--------------|---------|
  H.      Q    E E H    Q     W               W


                                  G
    +W              +W             Q  H.
|---(3)---------|---(3)---------|--3--------*|
|---(3)---------|---(3)---------|--3--------*|
|---(0)---------|---(0)---------|--0--------*|
|---(0)---------|---(0)---------|--0--------*|
|---(2)---------|---(2)---------|--2--------*|
|---(3)---------|---(3)---------|--3--------*|
|

|    ~~~~~~~~~~~~~~~~~~~~
|   +W              +W             Q  H.
|---(3)---------|---(3)---------|--3--------*|
|---------------|---------------|-----------*|
|-([12])--------|-([12])--------|-12--------*|
|---------------|---------------|-----------*|
|---------------|---------------|-----------*|
|---------------|---------------|-----------*|
    +W              +W             Q  H.


Lyrics
------
Ooh, there's no bread, let 'em eat cake
There's no end to what they'll take
Flaunt the fruits of noble birth
Wash the salt into the earth

But they're marching to Bastille Day.
La guillotine will claim her bloody prize.
Free the dungeons of the innocent
The king will kneel
And let his kingdom rise.

Ooh, blood stained velvet, dirty lace,
naked fear on every face
See them bow their heads to die
As we would bow as they rode by

And we're marching to Bastille Day
La guillotine will claim her bloody prize
Sing, oh choirs of cacophony
The king has kneeled
To let his kingdom rise.


Bridge/Solo

Lessons taught but never learned
All around us anger burns
Guide the future by the past
Long ago the mold was cast

For they marched up to Bastille Day
La guillotine claimed her bloody prize
Hear the echoes of the centuries
power isn't all that money buys.

Revision History
----------------
Rev. 0: Submitted 01-21-1999
Rev. 1: Submitted 04-26-2004 (ASCII exported by Powertab version)


Duration Legend
---------------
W - whole; H - half; Q - quarter; E - 8th; S - 16th; T - 32nd; X - 64th; a - acciaccatura
+ - note tied to previous; . - note dotted; .. - note double dotted
Uncapitalized letters represent notes that are staccato (1/2 duration)
Irregular groupings are notated above the duration line
Duration letters will always appear directly above the note/fret number it 
represents theduration for.  Duration letters with no fret number below them represent 
rests.  Multi-bar rests are notated in the form Wxn, where n is the number of bars to rest 
for. Low melody durations appear below the staff

Tablature Legend
----------------
h   - hammer-on
p   - pull-off
b   - bend
pb  - pre-bend
r   - bend release (if no number after the r, then release immediately)
/\  - slide into or out of (from/to "nowhere")
s   - legato slide
S   - shift slide
  - natural harmonic
[n]  - artificial harmonic
n(n) - tapped harmonic
~   - vibrato
tr  - trill
T   - tap
TP  - trem. picking
PM  - palm muting
\n/  - tremolo bar dip; n = amount to dip
\n  - tremolo bar down
n/  - tremolo bar up
/n\  - tremolo bar inverted dip
=   - hold bend; also acts as connecting device for hammers/pulls
<>  - volume swell (louder/softer)
x   - on rhythm slash represents muted slash
o   - on rhythm slash represents single note slash

Misc Legend
-----------
|  - bar
||  - double bar
||o - repeat start
o|| - repeat end
*|  - double bar (ending)
:  - bar (freetime)
$  - Segno
&  - Coda
Tempo markers -  = BPM(8/16=s8/s16), where s8 = swing 8ths, 
s16 = swing 16ths

Suggest correction
Creating personal tab
Creating personal tab
You can edit any tab online and save it as your Personal.

You can edit, replace or remove any tab part or add personal notes – all changes will be seen only by you.

Personal tabs can be accessed anytime from any device, even offline.
Learn more »
comments
print report bad tab
2 comments total.
+1 reply
rebeltrucker 10 Sep 28, 2007 10:46 AM

Nice tab ;)

0 reply
ZeppelinSkynyrd 10 Sep 06, 2012 05:43 AM

great job man, way better than the other two. Long live Rush.

guest
You may want to rate the tab now too:
select rating
Wanna post a correction for this tab? Suggest correction