Oops, an error
Loading. Please wait.

Before And After tab

version 1
version 1

Whole song

Interactive

by Rush
3,692 views 3 this week
1 commentread comment
1 2 3 4 5
1 last vote to show rating
add to favorites
×
Save as Personal and add changes to this tab that will be seen only by you. Learn more ›
×
You can save this tab as Personal to edit and correct it or add notes. All changes will be seen only by you. Learn more »
launch autoscroll
font size
0
reset
how to read this tab
guitar tuner
edit
Autoscroll
slow
fast
+/-
esc
set tempo
stop
#----------------------------------PLEASE NOTE---------------------------------#
#This file is the author's own work and represents their interpretation of the #
#song. You may only use this file for private study, scholarship, or research. #
#------------------------------------------------------------------------------##
From: Anthony J Zimmermann 

Rush
Before and After
Music and Lyrics by Lifeson, Lee, and Rutsey
Transcribed by Tony Zimmermann 
Comments welcome

Gtr. 1 (clean elec.)
----------<12>------------<12>-----------<12>-------------------------|
-----<12>------<5>---<12>------<5>--<12>------<5>---------------------|
----------------------------------------------------------------------|
----------------------------------------------------------------------|
----------------------------------------------------------------------|
----------------------------------------------------------------------|

Gtr. 2  (clean elec.)
-----0---------------0---------------0---------0----------------------|
-----0---------------0---------------0---------0----------------------|
----13---------------8---------------6---------1----------------------|
----14---o//o--------9---o//o--------7---o//o--2---o//o---------------|
----14---------------9---------------7---------2----------------------|
----12---------------7---------------5---------0----------------------|
   E(XII)          Badd4           Aadd2       E
Double Gtr. 2 with 12-string Acoustic 2nd time
==

----------------------------------------------------------------------|
----------------------------------------------------------------------|
----------------------------------------------------------------------|
----------------------------------------------------------------------|
--<7>---------<7>--------<7>------9-----------------------------------|
-------<7>---------<7>-------<7>-----<12>-----------------------------|

--0---0--------0---0-----0-----------0--------------------------------|
--0------0-----0------0--0-------2---0--------------------------------|
--x------------x---------6-------2---1--------------------------------|
--4------------6---------7---6---4---2--------------------------------|
--4------------6---------7---6-------2--------------------------------|
--2------------4---------5---4-------0--------------------------------|

==
---------0----------------0------------0--------------------0---------|
----------------------------------------------------------------------|
------------8----------------8-----------6---------------------6------|
-------9--------9-------9-----------7---------7----------7----------7-|
-----9--------9------9------------7--------7----------7-----------7---|
--7---------------7-------------5------------------5------------------|

variation
-----------0-----------------7-P-0-0-0--------0--------------7P0-0-0--|
------------------7-P-0-0-0-------------------------5P0-0-0-----------|
--------------8----------------------------------6--------------------|
--------9-----------------------------------7-------------------------|
-----9------------------------------------7---------------------------|
--7-------------------------------------5-----------------------------|

--0----   Bass  8va  --0--           ---0-----------------------------|
--0----              --0--           ---0-----------------------------|
--x--------------------x----------------6-----------------------------|
--4-----{4}-----{4}----6--{6}-----{6}---7----|----|--|--|--|----------|
--4-------{4}-{4}------6----{6}-{6}-----7----/----/--/--/--/----------|
--2---------{2}--------4------{4}-------5-----------------------------|

=
----------------------------------------------------------------------|
----------------------------------------------------------------------|
---2--2--2--2--2---------------------7--x-----------------------------|
---2--2--2--2--2-----x--x--x--x--5---7--x-----------------------------|
---0--0--0--0--0-----x--x--x--x--5---5--x-----------------------------|
---------------------x--x--x--x--3------------------------------------|


-----------------------------------------------------------------------|
-----------------------------------------------------------------------|
-----------------------------------------------------------------------| (half
---2--2--2--2--2--------0---------------2-2-2-2-2------0---------------|  step
---2--2--2--2--2--0-H-2---0--2-P-0------2-2-2-2-2--0H2---0-2-P-0-------|H-  bend)
---0--0--0--0--0--------------------3---0-0-0-0-0----------------3-----|(3)


-----------------------------|----------------------------------------|
-----------------------------|----------------------------------------|
--5---5--5------------7--3---|----------------------------------------|
--5---5--5---2-3-4-5--7--3---|----------------------------------------|
--3---3--3------------5--1---|------------1---------------------------|
-----------------------------|---1--2--3-----3------------------------|

Leads :
----------------------------------------------------------------------|
-------------F-------------3/4--------------------F---F---F---F-------|
------------(5)--grad.rel.-(5)---------------3-5-(5)-(5)-(5)-(5)------|
----------------------------------------------------------------------|
-------1------------------------------1-------------------------------|
-1-2-3---3----------------------1-2-3---3-----------------------------|

----------------------------------------------------------------------|
-rel------------------------------------------------------------------|
--5-P-3---5-3--5-P-3----------3-----------3---------------------------|
--------5------------5--3--5-----5--3--5-----5--3---------------------|
---------------------------------------------------5-4-3-1--3--1------|
------------------------------------------------------------------3-1-|

----------------------------------------------------------------------|
------------1+1/2---F---1/2--rel--------------------------------------|
------------(7)----(7)--(7)--(7)--7-6-5--5-P-3---5-(5)-3--------------|
-----------------------------------------------5----F-----5-5-P-3-3-5-|
-------1---------------------------------------------------------5----|
-1-2-3---3------------------------------------------------------------|

----------------------------------------------------------------------|
----F--3---6-P-3--F---3--6-P-3--F--3--6-P-3--F--rel--------F----------|
-5-(5)-----------(5)-----------(5)----------(5)--5--3-----(5)-5--3----|
------------------------------------------------------5-3----------5--|
----------------------------------------------------------------------|
----------------------------------------------------------------------|

----------------------------------------------------------------------|
---F------------------------------------------------------------------|
--(5)-5--3---5---3----------------------------------------------------|
-----------5---5------------------------------------------------------|
--------------------------1-----------1-----------1-----------1-------|
--------------------1-2-3---3---1-2-3---3---1-2-3---3---1-2-3---3-----|

==
----------------------------------------------------------------------|
---F--1+1/2--2---2----rel.........------------------------------------|
--(9)--(9)--(9)-(9)--(9)-9-9-9-9-9---9-8-7--5---5----5----5----5------|
-------------------------------------------------7P5--7P5--7P5--7P5---|
----------------------------------------------------7----7----7----7--|
----------------------------------------------------------------------|

--------------------------------------------------------------------------|
------F--rel--------------------------------------------------------------|
-5-7-(7)-(7)--------------------------------------------------------------|
-------------7-7-7-6-5--------------------F--rel------------------F-rel---|
-----------------------7-6-5-------3-H-5-(5)-(5)-3---------3-H-5-(5)(5)-3-|
-----------------------------3-H-5-----------------5-3-H-5----------------|

----------------------------------------------------------------------|
----------------------------------------------------------------------|
----------------------------------------------------------------------|
--------F-----------F-rel--------F-rel--------F---F-------F-rel-------|
-----3-(5)~~~~~~---(5)(5)-3---3-(5)(5)-3---3-(5)-(5)~~~~~(5)(5)-3---3-|
---5------------------------5------------5------------------------5---|

----------------------------------------------------------------------|
-------------------------------------------F-rel-------5H8P5--5H8P5---|
--------------------------------------5-7-(7)(7)-5---5------7------7--|
--F-rel----------------------5-----5H7-------------7------------------|
-(5)(5)-3---3-----3H5P3-3H5/7-7P5-7-----------------------------------|
----------5----3H5-----5----------------------------------------------|

----------------5H8P5--5H8P5------------------------------------------|
--5H8P5--5H8P5-------8------8-8P5--5H8P5---F-rel--------F-rel---------|
-------7------7------------------7------7-(7)(7)-5---5-(7)(7)-5---5---|
---------------------------------------------------7------------7-----|
----------------------------------------------------------------------|
----------------------------------------------------------------------|

----------------------------------------------------------------------|
-------8--(8)-8-(8)-8-(8)-8-------10--(10)-10-(10)-------6-(6)-6-(6)--|
-7-(7)(7)-(7)(7)(7)(7)(7)(7)---(9)(9)--(9)-(9)-(9)---(5)(5)(5)(5)(5)--|
----F-rel--F-rel-F-rel-F-rel----F-rel---F--rel--F-----F-rel-F-rel-F---|
----------------------------------------------------------------------|
----------------------------------------------------------------------|

            
            
Suggest correction
Creating personal tab
Creating personal tab
You can edit any tab online and save it as your Personal.

You can edit, replace or remove any tab part or add personal notes – all changes will be seen only by you.

Personal tabs can be accessed anytime from any device, even offline.
Learn more »
Give kudos to tab author, rate the tab!
1 2 3 4 5
comments
print report bad tab
1 comment total.
0 reply
Markus93 151 Aug 27, 2008 11:54 AM

one of my favorites

guest
Wanna post a correction for this tab? Suggest correction