Oops, an error
Loading. Please wait.

Best I Can tab

version 1
version 1

Whole song

Interactive

by Rush
5,374 views 15 this week
2 commentsread comments
1 2 3 4 5
x 4
add to favorites
×
Save as Personal and add changes to this tab that will be seen only by you. Learn more ›
×
You can save this tab as Personal to edit and correct it or add notes. All changes will be seen only by you. Learn more »
launch autoscroll
font size
0
reset
how to read this tab
guitar tuner
backing track
0:00
0:00
edit
Autoscroll
slow
fast
+/-
esc
set tempo
stop
Author
----------------------------------------------------------------------------
                            BEST I CAN - Rush
----------------------------------------------------------------------------

Kenneth Dale Harris IV
kenny@kdharris.net
Standard Tuning
Main Riff.......................|Chorus.............|1st fill  |2nd fill
  A D A  G C G   D D            |       A A G G D D |after chrs|after chrs
e--------------|----------------|-----------3-3-2-2-|-/-14-14\-|-3-2-0-2-|
B--------------|----------------|-------2-2-3-3-3-3-|-/-15-15\-|-3-3-3-3-|
G--------------|-7-7------------|-------2-2-0-0-2-2-|-/-14-14\-|-2-2-2-2-|
D---7------5---|-7-7------------|-------2-2-0-0-0-0-|----------|-0-0-0-0-|
A-7-5-7--5-3-5-|-5-5-8-7-6-5~~~-|-------0-0-2-2-----|----------|---------|
E-5---5--3---3-|----------------|-7-6-5-----3-3-----|----------|---------|
Right before the solo!
e------------------------|
B------------------------|
G------------------------|
D-[7-7---7--]-9-9-9-9\]--|
A-[5-5-7-5-2]-7-7-7-7\]--|
E-----[5---0]------------|

e----------------------------| Thats the beginning to Alex's solo. The rest 
B----10-10-------------------|is just Alex Jammin' in "B" (penatonic). He
G-7^9-----9^7-7~---7h9p7-7~7~|played this type of solo alot in Rush's 
D---------------7h9-----9----|first few records.  Its a good place where
A----------------------------|you can place your identity, and create your 
E----------------------------|own solo. 


^ - bend
[]- palm mute everything inside
/ - slide up
\ - slide down
~ - vibrato

            
            
Suggest correction
Creating personal tab
Creating personal tab
You can edit any tab online and save it as your Personal.

You can edit, replace or remove any tab part or add personal notes – all changes will be seen only by you.

Personal tabs can be accessed anytime from any device, even offline.
Learn more »
comments
print report bad tab
2 comments total.
0 reply
MRguitarman8 10 Sep 28, 2011 06:08 PM

this is wrong...

0 reply
cookadam 221 Dec 05, 2015 10:34 AM

Chorus should be like this with the B chord added.
|------------------3-3-2-2-|-/-14-14\-|-3-2-0-2-|
|-------2-2--------3-3-3-3-|-/-15-15\-|-3-3-3-3-|
|-------2-2---4-4--0-0-2-2-|-/-14-14\-|-2-2-2-2-|
|-------2-2---4-4--0-0-0-0-|----------|-0-0-0-0-|
|-------0-0---2-2--2-2-----|----------|---------|
|-7-6-5------------3-3-----|----------|---------|

guest
You may want to rate the tab now too:
select rating
Wanna post a correction for this tab? Suggest correction