Oops, an error
Loading. Please wait.

By-Tor And The Snow Dog drums

version 1
version 1

Whole song

Interactive

by Rush
438 views 3 this week
1 commentread comment
1 2 3 4 5
2 more votes to show rating
add to favorites
×
Save as Personal and add changes to this tab that will be seen only by you. Learn more ›
×
You can save this tab as Personal to edit and correct it or add notes. All changes will be seen only by you. Learn more »
launch autoscroll
font size
0
reset
guitar tuner
edit
Autoscroll
slow
fast
+/-
esc
set tempo
stop
Author
NOT MY TAB. I just thought it would be good to have these here on UG. Credit goes to those below.



Rush: By-tor and the Snow Dog
From the Album Fly by Night
Copyright 1975 Core Music Publishing
Music by Lee & Lifeson
Lyrics by Peart

Transcribed by Nick Tuttle
Comments/corrections to Nick Tuttle (ntutt@parkview.k12.wi.us)

    s s s s e e      e  e e e e e e e  e e e e e e e e  e e e e e e s s s s
C  |------------|  ||C----------------|----------------|--------------------|
H2 |------------| 4||.--X-X-X-X-X-X-X-|X-X-X-X-X-X-X-X-|X-X-X-X-X-X---------|
S4 |X-X-X-----X-| 4||.----X-------X---|----X-------X---|----X-------X-X-X-X-|
T  |------1-3---|  ||-----------------|----------------|--------------------|
K  |------------|  ||X-----X---X------|X-X---X---X-----|X-X---X---X---------|
                     <- Repeat These Bars - - - - - - - - - - - - - - - - -

    e e e e s s e e e  e e e e e e e e  e e e e e e e e  e e e e e e e s s
C  |------------------|C---------------|----------------|------------------|
H  |--O-+-O-+-----1---|--X-X-X-X-X-X-X-|X-X-X-X-X-X-X-X-|O-+---O-+---O-+---|
S  |X-------X-X-X---3-|----X-------X---|----X-------X---|--X-X---X-X---X-X-|
K  |--X---X-----------|x-----X---X-----|X-X---X---X---X-|X-----X-----X-----|
    - - - - - - - - - - - - - - - - - - - - - - - - - - - - - - - - - - - >

    e e e e e s s e e    e e e e e^e^e e^e^e  e e e e e e e e
C  |------------------ ||--------------------|C-----------C---|
H  |------------------.||--------------------|--X-X-X-X-X---X-|
S  |X-------X-------X-.||X-------X-----------|----X-------X---|
T  |--1-2-3---1-3-3--- ||--1-2-3---2-2-3-3-3-|----------------|
K  |------------------ ||--------------------|X-----X---X-----|
    <- 1st Ending - -> <- 2nd Ending - - ->

  e e e e e e e e  e e e e e e e e  e e e e e s s e s s  e e e e e e e e
C|----------------|------------C---|--------------------|C-----------C---|
H|X-X-X-X-X-X-X-X-|X-X-X-X-X-X---X-|X-X-X-X---X-X-X-X-X-|--X-X-X-X-X-X-X-|
S|----X-------X---|----X-------X---|----X---------------|----X-------X---|
T|----------------|----------------|--------3-----------|----------------|
K|--X-----X-X-----|X-----X---X-----|--X-----X-----------|X-----X---X-----|

    e e e e e e e e  e s s e e s s e e s s  e e e e s s s s s s s s
C  |----------------|K-------K-------K-----|------------------------|
H  |X-X-X-X-X-X-X-X-|----------------------|----------X-X-X-X-X-X-X-|
S  |----X-------X---|--X-X-X---X-X-X---X-X-|X-----------------------|
T  |----------------|----------------------|--1-2-3-3---------------|
K  |--X-----X-X-----|X-------X-------X-----|------------------------|

    e e e e e e e e  e e e e e e e e  e e e e e e s s s s
||  C---------------|----------------|--------------------|
||. --X-X-X-X-X-X-X-|X-X-X-X-X-X-X-X-|X-X-X-X-X-X---------|
||. ----X-------X---|----X-------X---|----X-------X-X-X-X-|
||  ----------------|----------------|--------------------|
||  X-----X---X-----|X-X---X---X-----|X-X---X---X---------|
    <- Repeat These Bars - - - - - - - - - - - - - - - - -

    e e e e s s e e e  e e e e e e e e e e e e e e e e  e e e e e e e e
C  |------------------|C---------------|----------------|----------------|
H  |--O-+-O-+-----1---|--X-X-X-X-X-X-X-|X-X-X-X-X-X-X-X-|O-+---O-+---O-+-|
S  |X-------X-X-X---3-|----X-------X---|----X-------X---|--X-X---X-X---X-|
K  |--X---X-----------|x-----X---X-----|X-X---X---X---X-|X-----X-----X---|
    - - - - - - - - - - - - - - - - - - - - - - - - - -> <- 1st Ending -

    e e e e e e e e    e e e e e e s s s s  s s s s s s s s s s s s s s s s
H  |----------------.||O-+---O-+---O-+-----|--------------------------------|
S  |----X-----X-----.||--X-X---X-X---X-X-X-|X-X-X-X-------------------------|
T  |2-3---2-3---2-3--||--------------------|--------1-1-1-1-2-2-2-2-3-3-3-3-|
K  |-----------------||X-----X-----X-------|--------------------------------|
      - - - - - - - ->   <- 2nd Ending - - - >

  e e e e e e e e  e e e e e e e e  e e e e e e e e  e e e e e s s e s s
C|C-----------C---|----------------|----------------|--C---C-------------|
H|--X-X-X-X-X---X-|X-X-X-X-X-X-X-X-|X-X-X-X-X-X-X-X-|X-------------------|
S|----X-------X---|----X-------X---|----X-------X---|--------X-----------|
T|----------------|----------------|----------------|----------2-2-2-3-3-|
K|X-----X---X-----|--X-----X-X-----|X-----X---X-----|--X---X-------------|

    e e e e e e e e  e e e e e e e e  e s s e e s s e s s s s
C  |C-----------C---|----------------|K-------K-------K-------|
H  |--X-X-X-X-X---X-|X-X-X-X-X-X-X-X-|------------------------|
S  |----X-------X---|----X-------X---|--X-X-X---X-X-X---X-X-X-|
T  |----------------|----------------|------------------------|
K  |X-----X---X-----|--X-----X-X-----|X-------X-------X-------|

    s s s s s s s s s s s s s s s s  e e e e e e e e  e e e e e e e e
C  |--------------------------------|C---------------|----------------|
H  |--------------------------------|--X-X-X-X-X-X-X-|H-H-H-H-H-H-H-H-|
S  |X-X-X-X-------------------------|----X-------X---|--X-----X---X---|
T  |--------1-1-1-1-2-2-2-2-3-3-3-3-|----------------|----------------|
K  |--------------------------------|X-----X---X-----|X-----X---X-----|

    e e e e s s s s s s s s  e e e e e e s s s s  e e e e e e e e
C  |C-----------------------|--C-----C-----------|C---------------|
H  |--H-H-H-----------------|--------------------|--X-X-X-X-X-X-X-|
S  |----X---X-X-X-X---------|--X-----X---X-X-X-X-|----------------|
T  |----------------3-3-3-3-|--------------------|----X-------X---|
K  |X-----X-----------------|X-----X---X---------|X-----X---X-----|

    e e e e e e e e  e e e e e^e^e e^e^e  e e e e e e e s s
C  |----------------|C-------------------|--C-----C---------|
H  |H-H-H-H-H-H-H-H-|--H-H-H-------------|------------------|
S  |--X-----X---X---|----X---X-----------|--X-----X---F-X-X-|
T  |----------------|----------2-2-3-3-3-|------------------|
K  |X-----X---X-----|X-----X-------------|X-----X---X-------|


    q e e e e e e  e e e e e e e e    e e e e e e e e  e e e e e e s s s s
C|| C-------------|---------------- ||C-----C---------|C-----C-------------|
H||.--X-X-X-X-X-X-|X-O-X-O-X-O-X-O-.||----------X-X-X-|--------------------|
S||.--X---X---X---|------------X---.||------------X---|------------X-X-----|
T|| --------------|---------------- ||----------------|----------------3-3-|
K|| X---X---X---X-|X-X---X---X---X- ||X-----X---X---X-|X-----X---X---------|
      <-Repeat These Bars - - - - - > <-1st Ending - - - - - - - - - - -->

  e e e e e e e e  e e e e e e s s s s  e e e e e e e e  e e e e e e e e
C|C-----C---------|C-----C-------------|C---------------|----------------|
H|----------X-X-X-|--X-X---------------|--H-H-H-H-H-H-H-|H-H-H-H-H-H-H-H-|
S|------------X---|------------X-X-----|----X-------X---|----X-------X---|
T|----------------|----------------3-3-|----------------|----------------|
K|X-----X---X---X-|X-----X---X---------|X-----X---X-----|X-----X---X-----|
    <-2nd Ending - - - - - - - - - - - ->

    e e e e e e e e  e e e e e e e e  e e e e e e e e  e e e e e e e e
C  |------------S---|------------C---|----------------|------------C---|
H  |H-H-H-H-H-H---H-|H-H-H-H-H-H---H-|H-H-H-H-H-H-H-H-|H-H-H-H-H-H---H-|
S  |----X-------X---|----X-------X---|----X-------X---|X---X---X---X---|
K  |X-----X---X-----|X----X----X-----|X-----X---X-----|--X---X---X---X-|

    e e e e e e e s s  e e e e e e e e  w     e e e e e e e e
C  |------------------|--C-----C-------|C----|----------------|
H  |H-H-H-H-H-H-H-----|----------------|-----|----------------|
S  |X---X---X---X-X-X-|X-X-----X-------|-----|----------F-----|
T  |------------------|------------3F--|-----|----------------|
K  |--X---X---X---X---|--X-X-X---X---X-|X----|------------X-X-|

    e e q q q  e e e e e e e e e e e e e e e e  e e e e e e e e
C  |----------|----------------|C---------------|----------------|   |   |   |
H  |O-+-------|----------------|----X---X---X---|X---X---X---X---|   |   |   |
S  |----------|--F---------F---|----X-------X---|----X-------X---|./.|./.|./.|
T  |----------|--------3F------|----------------|----------------|   |   |   |
K  |----------|----X-X---X---X-|X-----X---X-----|X-X---X---X-----|   |   |   |

    e e e e e e e e  e e e e e e e e  e e e e e e e e
H  |X---X---X---X---|X---X---X---X---|X---X---X---X---|   |   |   |
S  |----X-----------|X---X-------X---|----X-------X---|./.|./.|./.|
K  |X-X---X---X---X-|--X---X-X-X---X-|--X-----X-X---X-|   |   |   |

    e e e e e e e e  e e e e e e e e  e e e e e e e e
C  |----------------|----C-----------|----------------|   |   |   |   |
H  |X---X---X---X---|X-------X---X---|X---X---X---X---|   |   |   |   |
S  |--------X---X-X-|------------X---|----X-------X---|./.|./.|./.|./.|
K  |--X---X---X-----|X-X-----X-X---X-|--X-----X-X---X-|   |   |   |   |

    e e e e e e e e  e e e e e e e e  e e e e e e e e  e e e e e e e e
C  |----C-----------|----------------|----------------|----------------|
H  |X-------X---X---|X---X---X---X---|X---X---X---X---|X---X---X---X---|
S  |----X-------X---|----X-------X---|----X-------X---|----X-------X---|
K  |--X-----X-X---X-|--X-----X-X---X-|--X-----X-X---X-|X-----X---X-----|


    e e e e e e e e  e e e e e e e e  e e e e e e e e  e e e e e e e e
C  |----------------|----------------|----------------|------------C----|
H  |X---X---X---X---|X---X---X---X---|X---X---X---X---|X---X---X--------|
S  |----X-------X---|----X-------X---|----X-------X---|----X-------X----|
K  |X-X-------X---X-|X-X---X---X-----|X-X-------X---X-|X-X---X---X------|

    e e e e e e e e          e e e e e e e e  e e e e e e e e
C  |----------------|   |   |----------------|--------C-------|
H  |X---X---X---X---|   |   |X---X---X---X---|X---X-------X---|
S  |----X-------X---|./.|./.|----X-----------|X-------X---X---|
K  |X-X---X---X-----|   |   |X-X---X---X-----|--X---X---------|

    e e e e e e e e          e e e e e e e e  e e e e e e e e
C  |----------------|   |   |----S-----------|----------------|
H  |X---X---X---X---|   |   |X-------X---X---|X---X---X---X---|
S  |----X-------X---|./.|./.|----X-------X---|----X-------X---|
K  |X-X---X---X-----|   |   |X-X---X-X-X---X-|--X---X---X-----|

    e e e e e e e e  e e e e e e e e  e e e e e e e e  e e e e e e e e
H  |X---X---X---X---|X---X---X---X---|X---X---X---X---|X---X---X---X---|
S  |----X-------X---|------------X---|----X-------X---|----X-------X---|
K  |X-X---X---X-----|X-X---X---X-----|X-X-----X-X-----|X-X---X---X-----|

    e e e e e e e e  e e e e e e e e  e e e e e e e e  e e e e e e e e
C  |----------------|----------------|------------C---|----------------|
H  |H---H---H---H---|H---H---H---H---|H---H---H-------|H---H---H---H---|
S  |----X-------X---|----X-------X---|----X-------X---|------------X-X-|
K  |X-X---X---X---X-|X-X---X---X---X-|X-X---X---X-----|X-X---X---X-----|

    e e e e e e e e  e e e e e e e e  e e e e e e e e  e e e e e e e e
C  |C---------------|----------------|----------------|------------C---|
H  |----H---H---H---|H---H---H---H---|H---H---H---H---|H---H---H-------|
S  |------------X---|----X-------X---|----X-------X---|----X-------X---|
K  |X-X---X---X-----|X-X---X---X-----|X-X---X---X-----|X-X---X---X-----|

    e e e e e e e e  e e e e e e e e  e e e e e e e e  e e e e e e e e
C  |----S-----------|------------C---|----------------|----------------|
H  |H-------H---H---|H---H---H-------|H---H---H---H---|X-X-X-X-X-X-X-X-|
S  |----X-------X---|----X-------X---|----X-------X---|----X-------X---|
T  |----------------|----------------|----------------|----------------|
K  |X-X-----X-X---X-|--X-----X-X-----|X-X---X---X-----|X-X--X----X-----|

    e e e e e e e e    e e e e e e e e  e e e e e e e e  e e e e e e e e
C  |----------------|| ----------------|C---------------|----------------|
H  |X-X-X-X-X-X-X-X-||.--O-+-O-+-O-+-O-|--X-X-X-X-X-X-X-|X-X-X-X-X-X-X-X-|
S  |----X-------X---||.------------X---|----X-------X---|----X-------X---|
K  |X-X--X----X-----|| X-X---X---X---X-|X-----X---X-----|X-X--X----X-----|
       <-Repeat These Bars - - - - - - - - - - - - - - -


    e e e e e e e e    e e e e e e e e  e e e e e e e e  e e e e e e e e
C  |---------------- ||--C---C---C---C-|C---------------|----------------|
H  |X-X-X-X-X-X-X-X-.||----------------|--X-X-X-X-X-X-X-|X-X-X-X-X-X-X-X-|
S  |----X-------X---.||------------X---|----X-------X---|----X-------X---|
K  |X-X---X---X----- ||X---X---X---X---|X-----X---X-----|X-X---X---X-----|
    - - - - - - - ->

    e e e e e e e e  s s s s s s s s s s s s s s s s
C  |----------------|--------------------------------|
H  |X-X-X-X-X-X-X-X-|--------------------------------|
S  |----X-------X---|X-X-X-X-------------------------|
T  |----------------|--------1-1-1-1-2-2-2-2-3-3-3-3-|
K  |X-X---X---X-----|--------------------------------|

      e e e e e s s s s s s      Q   Q   q    e e e e e s s s s s s
C  || C---------------------|   |C---C---C-|--C-----C------------- ||
S  ||.----------------------|./.|----------|----------X-X-X-X-X-X-.||
T  ||.----------2-2-3-3-3-3-|   |----------|----------------------.||
K  || X---P---P-------------|   |X---X---X-|--X-----X------------- ||
      <-Repeat These Bars - - - - - - - - - - - - - - - - - - - ->

    e e e e e s s s s s s      Q   Q   q  e e e e e s s s s s s
C  |C---------------------|   |C---C---C-|--C-----C------------|
S  |--------------X-X-X-X-|./.|----------|----------X-X-X-X-X-X|
T  |----------3-3---------|   |----------|---------------------|
K  |X---P---P-------------|   |X---X---X-|--X-----X------------|

    e e e e e s s s s s s      e s s s s e s s s s e s s
C  |C---------------------|   |C-------------------------|
S  |--------------X-X-X-X-|./.|--X-X-----F-X-X-------X-X-|
T  |----------3-3---------|   |-------------------23F----|
K  |X---P---P-------------|   |------X-X-------X-X-X-----|

    s s e s s s s q e s s
C  |----------------------|
H  |----O-+---------------|
S  |------X-X-X---F-F-X-X-|
T  |----------------------|
K  |X-X---------X-X-------|

I guess this is the part everone calls 7/4 War Furor:

    e e e e e e e e e e e e e e  e e e e e e e e e e e s^s^s s^s^s s^s^s
C  |C---------------------------|----------------------------------------|
H 7|--X-X-O-X-X-X-X-X-X-O-X-X-X-|X-X-X-O-X-X-X-X-X-X-X-------------------|
S 4|--X-X---X-X-----X-X---X-X---|--X-X---X-X-----X-X---X-X-X-X-X-X-X-X-X-|
T  |----------------------------|----------------------------------------|
K  |X-----X-----X-X-----X-----X-|X-----X-----X-X-----X-------------------|

    s^s^s s^s^s s^s^s s^s^s s^s^s s^s^s s^s^s s^s^s s^s^s s^s^s s^s^s s^s^s

C  |------------------------------------------------------------------------|
H 6|------------------------------------------------------------------------|
S 4|X-X-X-X---X---X-X---X-X-X---X-X-X---X---X-X-X-----X-X-----X-X-----X-X-X-|
T  |--------1---1-----2-------3-------3---3-------3-2-----3-2-----3-2-------|
K  |------------------------------------------------------------------------|

    s^s^s s^s^s s^s^s s^s^s s^s^s
C  |------------------------------|-------------------------------|
H 5|------------------------------|-------------------------------|
S 8|X---X---X---X-X-X-X-----------|-------------------------------|
T  |--1---2---3---------2-3-2-3-3-|-------------------------------|
K  |------------------------------|-------------------------------|

            
            
Suggest correction
Creating personal tab
Creating personal tab
You can edit any tab online and save it as your Personal.

You can edit, replace or remove any tab part or add personal notes – all changes will be seen only by you.

Personal tabs can be accessed anytime from any device, even offline.
Learn more »
Give kudos to tab author, rate the tab!
1 2 3 4 5
comments
print report bad tab
1 comment total.
0 reply
Skwisgaards 63 Sep 04, 2010 10:45 AM

This is flawless.

guest
You may want to rate the tab now too:
select rating
Wanna post a correction for this tab? Suggest correction