Oops, an error
Loading. Please wait.

Caravan Bass Tab

version 1
version 1

Whole song

Interactive

11,813 views 6 this week
4 commentsread comments
1 2 3 4 5
x 5
add to favorites
launch autoscroll
font size
0
reset
guitar tuner
backing track
0:00
0:00
×
Best way to learn
"Caravan"
Autoscroll
slow
fast
+/-
esc
set tempo
stop
Difficulty
advanced
Caravan (A-side Single)
Written By Rush
Transcribed by Alex Gage May 2010
(send any corrections to PRED_13_13@hotmail)

I've tabbed out all the parts in the order they appear but if a part re-occurs
then I've left it up to you to go back to that part of the tab. Fills are written after the
breaks in the lines if they change every time and I I've got just about
all of them except for maybe one or two at the end so Gedd-heads rejoice! Now, enjoy the tab!


Intro:                          lower part
G----------------    --------------------------|
D----------------    --------------------------|
A-7-6-5----------    --7-6-5-------------------|
E--------7-6-5---    --------7-3-0-------------|

Main Riff:                        fill
G---------------------      ------------------------|
D---------------------      ------------------------|
A---77-66-55---------       -------7-6-5------------|
E-0----------77-66-5--       -0-3-5-----------------|

pre-Chorus:
G------------  --------------  -----------               --------|
D------------  -------------  ------------               --------|
A-------1-1-1  -------1-2-3-   -------1-2-3-4-5-6------  -(9)\---|
E-00-23------  -00-23------    -00-23----------------    --------|

Chorus
G-----------------------------------------------------------------------|
D-----------------------------------------------------------------------|
A---------1-1-1-1----------3-3-3-3---------1-1-1-1----------------------|
E-3-3-3-3---------5-5-5-5----------4-4-4-4---------1-1-1-1-444----------|

Time Fuck
G-----------------------------------------|
D-----------------------------------------|
A-------6-5-----6-5-----------------------|
E-0-3-4-----3-3-----3---------------------|

Bass lick:
G------------------------------------------|
D------------------------------------------|
A-------6-5-4-3-2-1------------------------|
E-00-23------------------------------------|

Inst. passage pt. I:
G------------3------ ---------333-3-3-  ---------5555    ---------------     -5-5-5-753-5-3--|
D-----5-3-55-3-5-3-- -----5-3-333-3-3-  -----5-3-5555    ----5-3-353----     ----------------|
A------------------  -----------------  -------------    -----------53---    ----------------|
E-3-3--------------  -3-3-------------  -3-3---------    3-3----------6--    ----------------|

pt. II:
G-12-10-1210-1210-12-10-1210-151515---12-10-1210-1210-12-10-1210----------|
D---------------------------------------------------------------12121212--|
A-------------------------------------------------------------------------|
E-------------------------------------------------------------------------|

G----------------------------------------------------|
D-888-7-7-666-5-4-3---------(9)\---------------------|
A------------------1-2-3456--------------------------|
E----------------------------------------------------|

Tasty Bass Lick:
G-------------------------------------------------|
D-------------------------------------------------|
A-77x6x55x4x32------------------------------------|
E-------------------------------------------------|

Guitar solo:
G----------------------------------------------------------------------|
D----------------------------------------------------------------------|
A------------------------2-3-----------------------------2-3-444-5-6---|
E-00-3-5-6-x--6-00-3-5-6------00-3-5-6(666)-6-00-3-5-666---------------|

Guitar Solo Escape:
G--------------------------------------------------|
D-8-7-6-5-4-3--------------------------------------|
A--------------------------------------------------|
E-------------7-78--7-78--7-8-9101112--------------|

Outro:
G---------------------1212121212121212121212121212--|
D---------------------1414141414141414141414141414--| (etc.)
A-77-66-55------------------------------------------|
E----------77-66-50-0-------------------------------|

G-----------------|
D-----99-8-7-5\---|
A-----------------|
E-0-0-------------|
Suggest correction
comments
print report bad tab
4 comments total. Showing first comments.
0 reply
Jasonbts 3,087 Jun 16, 2010 01:32 PM

Tons of bits missing, many parts wrong, and the language was unnecessary.

+2 reply
droctogonapus93 10 Jun 18, 2010 03:44 PM

Let's learn from mistakes. This is a great lesson plan. :P

0 reply
MIKLO230 16 Jun 19, 2010 09:03 PM

Thanks for posting.

guest
You may want to rate the tab now too:
select rating
Wanna post a correction for this tab? Suggest correction