Oops, an error
Loading. Please wait.

Cygnus X-1 Book I The Voyage bass

version 2
version 2

Whole song

Interactive

by Rush
256 views 1 this week
no commentswrite comment
1 2 3 4 5
3 more votes to show rating
add to favorites
×
Save as Personal and add changes to this tab that will be seen only by you. Learn more ›
×
You can save this tab as Personal to edit and correct it or add notes. All changes will be seen only by you. Learn more »
launch autoscroll
font size
0
reset
guitar tuner
edit
Autoscroll
slow
fast
+/-
esc
set tempo
stop
Author
Difficulty
intermediate
Gtr I (E A D G) - 'Geddy Lee's Rickenbacker Bass'
Gtr II (E A D G) - 'Geddy Lee's Rickenbacker Bass'


  [Intro]
G|----------||-----------|-------------||--------||
D|----------||-----------|---5---------||o------o||
A|----------||------7----|-5-----------||o------o||
E|----------||-0---------|-------------||--------||

G||------------|-------------|----------|-------||
D||o-----------|---5---------|----------|------o||
A||o------7----|-5-----------|----------|------o||
E||--0---------|-------------|----------|-------||

G||--------------|-------------|-----------||-|-------------|
D||o-------------|---5---------|----------o||-|-------------|
A||o------7----0-|-5-----------|----------o||-|------7----0-|
E||--0-----------|-------------|-----------||-|-0-----------|

G|----------------------|-------------|-------------|------|
D|---5--5-(5)b5.5==(5)r-|-------------|---5---------|------|
A|-5--------------------|------7----0-|-5-----------|------|
E|----------------------|-0-----------|-------------|------|

G|-------------|---------------|-------------|
D|-------------|---5------5----|-------------|
A|------7----0-|-5-------------|------7----0-|
E|-0-----------|---------------|-0-----------|

G|----------------------|-------------|-------------|------|
D|---5--5-(5)b5.5==(5)r-|-------------|---5---------|------|
A|-5--------------------|------7----0-|-5-----------|------|
E|----------------------|-0-----------|-------------|------|

G|-------------|---------------------------|-------------|
D|-------------|---5---5---5-(5)b5.5==(5)r-|-------------|
A|------7----0-|-5-------------------------|------7----0-|
E|-0-----------|---------------------------|-0-----------|

G|----------------------|-------------|-------------|------|
D|---5--5-(5)b5.5==(5)r-|-------------|---5---------|------|
A|-5--------------------|------7----0-|-5-----------|------|
E|----------------------|-0-----------|-------------|------|

G|-------------|---------------|-------------|---------------------------|
D|-------------|---5------5----|-------------|---5---5---5-(5)b5.5==(5)r-|
A|------7----0-|-5-------------|------7----0-|-5-------------------------|
E|-0-----------|---------------|-0-----------|---------------------------|


  [Drums Enter]
G|-------------|-------------|----------|-------------|------------|------|
D|-------------|---5---------|----------|-------------|---5---5----|------|
A|------7----0-|-5-----------|----------|------7----0-|-5----------|------|
E|-0-----------|-------------|----------|-0-----------|------------|------|

G|-------------|-------------|----------|
D|-------------|---5---------|----------|
A|------7----0-|-5-----------|----------|
E|-0-----------|-------------|----------|

G|-------------|---------------------------||
D|-------------|---5---5---5-(5)b5.5==(5)r-||
A|------7----0-|-5-------------------------||
E|-0-----------|---------------------------||


 [Guitar Enters]
G||---------------------|----------------------------------|
D||o---------------5----|---------------5--5-(5)b5.5==(5)r-|
A||o------7----0-5------|------7----0-5--------------------|
E||--0------------------|-0--------------------------------|

G|--------------------|-------------|----------------------------||
D|---------------5----|-------------|---5---5---5-(5)b5.5==(5)r-o||
A|------7----0-5------|------7----0-|-5-------------------------o|| 4x
E|-0------------------|-0-----------|----------------------------||

G|----------|------------|----------|--------|
D|-7--------|-(7)--------|----------|--------|
A|----------|------------|-3--------|-(3)----|
E|----------|------------|----------|--------|

G|----------|------------|----------------|--------------|
D|-7--------|-(7)--------|----------------|--------------|
A|----------|------------|-3-3-0-3----3-3-|-0-3----0--0--|
E|----------|------------|----------------|--------------|

G|--------------|------------|--------------|------------------|
D|--------------|------------|--------------|------------------|
A|-5----4----2--|-(2)--------|-3----2-------|------------2/----|
E|--------------|------------|-----------2--|-(2)----(2)-------|

G|------------------------|------------|-------------|
D|------------------------|------------|-------------|
A|-5----4----2----3----0--|-(0)--------|-(0)---7s12\-|
E|------------------------|------------|-------------|

G|--------------|------------|--------------|
D|--------------|------------|--------------|
A|-5----4----2--|-(2)--------|-3----2-------|
E|--------------|------------|-----------2--|

G|------------|------------------------|
D|------------|------------------------|
A|------------|-5----4----2----3-------|
E|-(2)--------|------------------------|

G|-------------|-------------|-------------|------|
D|-------------|-------------|-------------|------|
A|-4-4-4-7-7-7-|-------------|-4-4-4-7-7-7-|------|
E|-------------|-4-4-4-3h4-3-|-------------|------|

G|-------------|-------------|-------------|
D|-------------|-------------|-------------|
A|-4-4-4-7-7-7-|-------------|-4-4-4-7-7-7-|
E|-------------|-4-4-4-3h4-3-|-------------|

G|-------------|-------------||
D|-------------|-------4--5--||
A|-------2--3--|-5--6--------||
E|-3--4--------|-------------||


   [Gtr I]
G|-----------------------|--------------------------|-----------------------|
D|-----------------------|--------------------------|-----------------------|
A|-3---3-3---3-3---3---3-|--------------------------|-6---6-6---6-6---6-6-5-|
E|-------------------3---|-2---2-2---2-2---2-2---2/-|-----------------------|

G|-----------------------|-------------------------|-----------------------|
D|-----------------------|-------------------------|-----------------------|
A|-3---3-3---3-3---3---3-|-------------------4-3-4-|-6---6-6---6-6---6-6-5-|
E|-------------------3---|-2---2-2---2-2---2-------|-----------------------|

G|-----------------------|-------------------------|-----------------------|
D|-----------------------|-------------------------|-------------------8---|
A|-3---3-3---3-3---3---3-|-------------------4-3-4-|-6---6-6---6-6---6---6-|
E|-------------------3---|-2---2-2---2-2---2-------|-----------------------|

G|-----------------------|---------------------------|------------------------|
D|-----------------------|---------------------------|---------------8---8----|
A|-3---3-3---3-3---3---3-|---------------4-3-4-4-3-4-|-6---6-6---6-6---6---6--|
E|-------------------3---|-2---2-2---2-2-------------|------------------------|

G|-----------------------|-------------------------|-------------------8---|
D|-------------------5---|-------------------------|---------------8-------|
A|-3---3-3---3-3---3---3-|-------------------4-3-4-|-6---6-6---6-6---6---6-|
E|-----------------------|-2---2-2---2-2---2-------|-----------------------|


  [Synth Enters]
G|-----------------------|-------------------------|-----------------------|
D|-----------------------|-------------------------|-------------------8-8-|
A|-3---3-3---3-3---3---3-|-------------------4-3-4-|-6---6-6---6-6---6-----|
E|-------------------3---|-2---2-2---2-2---2-------|-----------------------|

G|-----------------------|-------------------------|-----------------------|
D|-----------------------|-------------------------|-------------------8---|
A|-3---3-3---3-3---3---3-|---------------4-4-3-4-4-|-6---6-6---6-6---6---6-|
E|-------------------3---|-2---2-2---2-2-----------|-----------------------|

G|-----------------------|-------------------------|-------------------8---|
D|-----------------------|-------------------------|---------------8-------|
A|-3---3-3---3-3---3---3-|-------------------4-3-4-|-6---6-6---6-6---6---6-|
E|-------------------3---|-2---2-2---2-2---2-------|-----------------------|

G|-----------------------|-------------------------|-------------------8---|
D|-----------------------|-------------------------|---------------8-------|
A|-3---3-3---3-3---3---3-|---------------4-4-3-4-4-|-6---6-6---6-6---6---6-|
E|-------------------3---|-2---2-2---2-2-----------|-----------------------|

G|-----------------------|-------------------------|-------------------------|
D|-----------------------|-------------------------|-----4-4---4-4---4-4---4-|
A|-3---3-3---3-3---3---3-|-------------------------|-------------------------|
E|-------------------3---|-2---2-2---2-2---2-2---2-|-2-----------------------|


 [Verse]
G|-------------------||----------|----------|-2--------|----------|--------|
D|-4-----------------||----------|----------|----------|----------|--------|
A|-------------------||-0--------|-3--------|----------|-3--------|-(3)----|
E|-------------------||----------|----------|----------|----------|--------|

G|----------|------------|----------------|--------------|
D|----------|------------|----------------|-----------5--|
A|-0--------|-(0)--------|-3-3-0-3----3-3-|-0-3----3-----|
E|----------|------------|----------------|--------------|

G|----------|------------|----------------|--------------|
D|----------|------------|----------------|-----------5--|
A|-0--------|-(0)--------|-3-3-0-3----3-3-|-0-3----3-----|
E|----------|------------|----------------|--------------|

G|--------------|------------|--------------|--------|
D|--------------|------------|-----------4--|-(4)----|
A|-5----4----2--|-(2)--------|-3----2-------|--------|
E|--------------|------------|--------------|--------|

G|------------------------|------------|--------|
D|------------------------|------------|--------|
A|-5----4----2----3----0--|-(0)--------|-(0)----|
E|------------------------|------------|--------|

G|--------------|------------|--------------|--------|
D|--------------|------------|-----------4--|-(4)----|
A|-5----4----2--|-(2)--------|-3----2-------|--------|
E|--------------|------------|--------------|--------|

G|------------------------|------------|-----------------|
D|------------------------|------------|--------------5--|
A|-5----4----2----3----0--|-(0)--------|-(0)------(0)----|
E|------------------------|------------|-----------------|

G|----------|------------|------------|--------||
D|-5--------|-(5)--------|-(5)--------|-(5)----||
A|----------|------------|------------|--------||
E|----------|------------|------------|--------||


 [Verse 2]
G||------------||-|--------------|
D||o----------o||-|--------------|
A||o----------o||-|---------12S==|
E||------------||-|--------------|

G|----------------|----------------|---------------|----------------|
D|----------------|------3-2-3-2---|---------------|------5---3-2-0-|
A|-3--2-3---3-2-0-|----3---------3-|-5--3--2---3-5-|----------------|
E|----------------|-1--------------|---------------|-3--3-----------|

G|----------------|-----------------|----------------|---------------|
D|----------------|-------3---3-2---|----------------|---------------|
A|-3--2-3---3-2-0-|---------------3-|-5--5-3---2-3-5-|---------------|
E|----------------|-1---1-----------|----------------|-3--1-3--3-1-3-|

G|----------------|----------------|------7-4-5---2-|----------------|
D|----------------|------3---3-2---|------------3---|-5--5-3---2-3-5-|
A|-3--2-3---3-2-0-|--------------3-|-5--5-----------|--------3-------|
E|----------------|-1--1-----------|----------------|----------------|

G|----------------|----------------|----------------|-------------------|
D|----------------|------3---3-2---|----------------|-------------------|
A|-3--2-3---3-2-0-|--------------3-|-5--5-3---2-3-5-|-------------------|
E|----------------|-1--1-----------|----------------|-3--3-3-3-1-3-3-3--|

G|----------------|----------------|----------------|-----------------|
D|----------------|------3---3-2---|----------------|-----------------|
A|-3--2-3---3-2-0-|--------------3-|-5--5-3-3-2-3-5-|-----------2-2-3-|
E|----------------|-1--1-----------|----------------|-3---3-5-5-------|

G|-----------------|-----------------|
D|-----------------|-----------------|
A|-----------------|-----------------|
E|-3-3-3-3-3-3-3-3-|-3-3-3-3-3-3-3-3-|

                                    Gtrs I, II
G|----------|----------|----------|-------------|-------------||
D|----------|----------|----------|-------------|-------4--5--||
A|-3--------|----------|----------|-------2--3--|-5--6--------||
E|----------|-4--------|-1--------|-3--4--------|-------------||


 [Solo]
   Gtr I
G|----------|------------|----------|-----------|
D|----------|------------|----------|-5---------|
A|-3--------|------------|----------|------6----|
E|----------|-4-------4S=|=1--------|-----------|

G|------------------|------------------|----------------------|-----------|
D|------------------|------8-6-5-5-----|----------------------|-----------|
A|-3----3-5-6-5-3---|--------------8-6-|-8---8-6---6-5-6-5-3--|------6----|
E|----------------6-|-4----------------|---8-----6------------|-3---------|

G|----------|----------|------|
D|----------|----------|-3----|
A|-3--------|----------|------|
E|----------|-4--------|------|

   Gtrs I, II                  Gtr I
G|-------------|-------------|-----------|------||
D|-------------|-------4--5--|-5---------|------||
A|-------2--3--|-5--6--------|------6----|-3----||
E|-3--4--------|-------------|-----------|------||


  [Interlude]
G||------------||-||--------||
D||o----------o||-||o------o||
A||o----------o||-||o------o|| 4x
E||------------||-||--------||

   Gtrs I, II
G|------------------------|----------|----------|---------------------------|
D|--------------2-2---2---|----------|----------|--------------2-2---2------|
A|-4--4----4--4-----------|----------|----------|-4--4----4--4--------------|
E|------------------------|----------|----------|------------------------4--|
   
G|----------------|------------------|----------||--------||
D|----------------|------------------|----------||o------o||
A|----------------|---4--4----4------|----------||o------o|| 3x
E|-4-4---4--------|------------------|----------||--------||


 [Breakdown]
G||-----------------------||-||--------------------9--||
D||o---------------------o||-||o-----------------9---o||
A||o----7------------7---o||-||o----7----------7-----o|| 4x
E||--0-----0--0--0-0---0--||-||--0-----0--0--0--------||
  
G|-||------------------------||
D|-||o----4------------4----o||
A|-||o---------------4---4--o|| 4x
E|-||--2-----2--2--2---------||


 [Pre-Verse]
G|-----------------|-----------------|-----------------|------------|
D|-----------------|-----------------|-----------------|------------|
A|-4-4-4-4-7-7-7-7-|-----------------|-4-4-4-4-7-7-7-7-|-3-3--3-3---|
E|-----------------|-4-4-4-4-3-3-3-3-|-----------------|------------|

G|-----------------|-----------------|-----------------|---------------|
D|-----------------|-----------------|-----------------|---------------|
A|-4-4-4-4-7-7-7-7-|-----------------|-4-4-4-4-7-7-7-7-|-3-3-3--3-3-3--|
E|-----------------|-4-4-4-4-3-3-3-3-|-----------------|---------------|

G|-----------------|-----------------|-----------------|------------|
D|-----------------|-----------------|-----------------|------------|
A|-4-4-4-4-7-7-7-7-|-----------------|-4-4-4-4-7-7-7-7-|-3----3-3-3-|
E|-----------------|-4-4-4-4-3-3-3-3-|-----------------|------------|

G|-----------------|-----------------|-----------------|-----------|
D|-----------------|-----------------|-----------------|-----------|
A|-4-4-4-4-7-7-7-7-|-----------------|-4-4-4-4-7-7-7-7-|-3--3-3--3-|
E|-----------------|-4-4-4-4-3-3-3-3-|-----------------|-----------|


  [Verse]
G|-----------------|-----------------|-----------------|-----------|
D|-----------------|-----------------|-----------------|-----------|
A|-4-4-4-4-7-7-7-7-|-----------------|-4-4-4-4-7-7-7-7-|-3-3--3-3--|
E|-----------------|-4-4-4-4-3-3-3-3-|-----------------|-----------|

G||----------------------|---------------------|
D||o-----6---6-----9---9-|---------------------|
A||o-4-4---4---7-7---7---|-----6---6-----5---5-|
E||----------------------|-4-4---4---3-3---3---|

G|---------------------|---------------||
D|-----6---6-----9---9-|--------------o||
A|-4-4---4---7-7---7---|--------------o||
E|---------------------|-8-8-8-8-8-8---||

G|---------------------|---------------------|
D|-----6---6-----9---9-|---------------------|
A|-4-4---4---7-7---7---|-----6---6-----5---5-|
E|---------------------|-4-4---4---3-3---3---|

G|---------------------|---10------------|
D|-----6---6-----9---9-|---10------10----|
A|-4-4---4---7-7---7---|------10------10-|
E|---------------------|-8-------8-------|

G|---------------------|---------------------|
D|-----6---6-----9---9-|---------------------|
A|-4-4---4---7-7---7---|-----6---6-----5---5-|
E|---------------------|-4-4---4---3-3---3---|

G|---------------------|-------------|
D|-----6---6-----9---9-|-------------|
A|-4-4---4---7-7---7---|-------------|
E|---------------------|-8-8-8-8-8-8-|

G|---------------------|---------------------|
D|-----6---6-----9---9-|---------------------|
A|-4-4---4---7-7---7---|-----6---6-----5---5-|
E|---------------------|-4-4---4---3-3---3---|

G|---------------------|---------------------------|
D|-----6---6-----9---9-|---------------------------|
A|-4-4---4---7-7---7---|---------------------------|
E|---------------------|-3-3-3-3-3-3-3-3-3-3-3-3---|


 [Outro]
G|-------------------------|-------------------------|
D|-------------------------|-------------------------|
A|-------------------------|-------------------------|
E|-3-3-3-3-3-3-3-3-3-3-3-3-|-3-3-3-3-3-3-3-3-3-3-3-3-|

G|-------------------------|------------------------------|
D|-------------------------|------------------------------|
A|-------------------------|------------------------------|
E|-3-3-3-3-3-3-3-3-3-3-3-3-|-3-3-3-3-3-3-3-3-3-3-3-(3)----|

G|---------|----------|----------|----------|----------|--------*|
D|---------|----------|----------|----------|----------|--------*|
A|---------|----------|----------|----------|----------|--------*|
E|-3-------|-(3)------|-(3)------|-(3)------|-(3)------|-(3)----*|


Tablature Legend
----------------
 h   - hammer-on
 p   - pull-off
 b   - bend
 pb  - pre-bend
 r   - bend release (if no number after the r, then release immediately)
 /\  - slide into or out of (from/to "nowhere")
 s   - legato slide
 S   - shift slide
  - natural harmonic
[n]  - artificial harmonic
n(n) - tapped harmonic
 ~   - vibrato
 tr  - trill
 T   - tap
 TP  - trem. picking
 PM  - palm muting
\n/  - tremolo bar dip; n = amount to dip
 \n  - tremolo bar down
 n/  - tremolo bar up
/n\  - tremolo bar inverted dip
 =   - hold bend; also acts as connecting device for hammers/pulls
 <>  - volume swell (louder/softer)
 x   - on rhythm slash represents muted slash
 o   - on rhythm slash represents single note slash

Misc Legend
-----------
 |  - bar
||  - double bar
||o - repeat start
o|| - repeat end
*|  - double bar (ending)
 :  - bar (freetime)
 $  - Segno

            
            
Suggest correction
Creating personal tab
Creating personal tab
You can edit any tab online and save it as your Personal.

You can edit, replace or remove any tab part or add personal notes – all changes will be seen only by you.

Personal tabs can be accessed anytime from any device, even offline.
Learn more »
Give kudos to tab author, rate the tab!
1 2 3 4 5
comments
print report bad tab
guest
You may want to rate the tab now too:
select rating
Wanna post a correction for this tab? Suggest correction