Oops, an error
Loading. Please wait.

Cygnus X-1 Book I The Voyage Tab

version 2
version 2

Whole song

Interactive

by Rush
6,734 views 24 this week
1 commentread comment
1 2 3 4 5
x 6
add to favorites
launch autoscroll
font size
0
reset
how to read this tab
guitar tuner
×
Best way to learn
"Cygnus X-1 Book I The Voyage"
Autoscroll
slow
fast
+/-
esc
set tempo
stop
Author
                        CYGNUS X-1 BOOK ONE - THE VOYAGE
                               As recorded by Rush
        (From the 1977 Album A FAREWELL TO KINGS (MERCURY 314 534 628-2))

Words by PeartMusic by Lee, Lifeson and Peart
Arranged by Rush and Terry Brown
Transcribed by Richard J. Soto 
Last Updated: 2003-04-29

The riffs played initially within measures 19-24, are played with your index
finger "planted" (a stay of the fretted note) to play the lower melody notes
while the high melody note is fretted with the pinky finger. It's also important
to note that those high melody notes are executed with a sort-of
"picked hammer-on" creating the staccato of the high melody notes throughout the
section. This exact technique is also executed in measures 141-157 during the
interlude.

The guitar solo uses a wha-wha pedal with a delay but the wha filter isn't
really rocked except during measures 130 & 134-135 basically.

The end chords are played on the studio track with a clean guitar although when
Alex played this live in the late 1970's during the AFTK & Hemispheres Tours, he
used a clean but heavily thickened chorus sound with TONS of analog delay, which
was a very cool sound also.

Big thanks to my fellow tabbing comrade C.D. Bruce for his previous tab of this
song as it was a very helpful aide.


      Em(type 2)                F                    G                   G#
      x 7 9 9 8 x          1 3 3 2 1 1          3 5 5 4 3 3          4 6 6 5 4 4

          Cm                   Em                   C#m                  C5
      x 3 5 5 4 3          x 7 9 9 8 7          x 4 6 6 5 4          x 3 5 5 x x

Gtr I (E A D G B E) - 'Overdriven Guitar Sound'
Gtr II (E A D G B E) - 'Distortion Guitar Sound'
Gtr III (E A D G B E) - 'Overdriven Guitar Sound #2'
Gtr IV (E A D G B E) - 'Clean Guitar Sound'
Gtr V (E A D G B E) - 'Moog Synths'

  Intro
   Q=198
  4/4                         3/4        4/4            6/4
   Gtrs I, II
   W            W        20x   W          W              W
e|----------||------------||-|--------||------------||-|------|
B|----------||o----------o||-|--------||o----------o||-|------|
G|----------||------------||-|--------||------------||-|------|
D|----------||------------||-|--------||------------||-|------|
A|----------||o----------o||-|--------||o----------o||-|------|
E|----------||------------||-|--------||------------||-|------|


    4/4            3/4        4/4            3/4        4/4
     W         3x   W          W         6x   W          W     7x
e||------------||-|--------||------------||-|--------||--------||
B||o----------o||-|--------||o----------o||-|--------||o------o||
G||------------||-|--------||------------||-|--------||--------||
D||------------||-|--------||------------||-|--------||--------||
A||o----------o||-|--------||o----------o||-|--------||o------o||
E||------------||-|--------||------------||-|--------||--------||


    Drums Enter
                   3/4        4/4
     W         4x   W          W     6x
e||------------||-|--------||--------||
B||o----------o||-|--------||o------o||
G||------------||-|--------||--------||
D||------------||-|--------||--------||
A||o----------o||-|--------||o------o||
E||------------||-|--------||--------||


    Guitar Enters
    6/4                    7/4
     H    a Q.   E E E Q    H    a Q.   E E q  E +E       +E
e||-----------------------|-------------------------------------|
B||o----------------------|-------------------------------------|
G||-----------------------|-------------------------------------|
D||------------------5----|-----------------5--5-(5)b5.5==(5)r--|
A||o------5s7----7-5------|------5s7----7-5---------------------|
E||--0--------------------|-0-----------------------------------|


  6/4                    4/4
   H    a Q.   E E E Q    H    a Q.   E   E E E E E E +E       +E    4x
e|----------------------|---------------|----------------------------||
B|----------------------|---------------|---------------------------o||
G|----------------------|---------------|----------------------------||
D|-----------------5----|---------------|---5---5---5-(5)b5.5==(5)r--||
A|------5s7----7-5------|------5s7----7-|-5-------------------------o||
E|-0--------------------|-0-------------|----------------------------||


   Q=174
   A
   E q   q   q   E   E q   q   q   E
e|-----------------|-----------------|
B|-----------------|-----------------|
G|-----------------|-----------------|
D|---7---7---7---7-|---7---7---7---7-|
A|-----------------|-----------------|
E|-5---5---5---5---|-5---5---5---5---|
  Q   Q   Q   Q     Q   Q   Q   Q


   C
   E  q    q    q    E   E  q    q    q    E
e|---------------------|---------------------|
B|---------------------|---------------------|
G|---------------------|---------------------|
D|---10---10---10---10-|---10---10---10---10-|
A|---------------------|---------------------|
E|-8----8----8----8----|-8----8----8----8----|
  Q    Q    Q    Q      Q    Q    Q    Q


   A
     E  q   q   q   E   E q   q   q   E
e|--------------------|-----------------|
B|--------------------|-----------------|
G|--------------------|-----------------|
D|------7---7---7---7-|---7---7---7---7-|
A|--------------------|-----------------|
E|-\(5)---5---5---5---|-5---5---5---5---|
    Q    Q   Q   Q     Q   Q   Q   Q


   Q=218
   C                                   G5
   E E E E +E  E E E   E E +E  E E +E  Q
e|-------------------|---------------------|
B|-5-5---5-(5)---5-5-|---5-(5)---5-(5)-----|
G|-5-5-x-5-(5)---5-5-|---5-(5)---5-(5)-----|
D|-5-5-x-5-(5)---5-5-|---5-(5)---5-(5)-5/--|
A|-3-3-x-3-(3)---3-3-|---3-(3)---3-(3)-5/--|
E|-------------------|-----------------3/--|


   Q=186
   D     C#    Badd11            C     B    F#11
  7/8              4/4          7/8             4/4
    q  S  q  S Q    +W            q  S q  S Q    +W
e|-------------0--|-(0)--------|------------0--|-(0)----|
B|-------------0--|-(0)--------|------------0--|-(0)----|
G|-11----10----8--|-(8)--------|--9----8----3--|-(3)----|
D|-12----11----9--|-(9)--------|-10----9----4--|-(4)----|
A|-12----11----9--|-(9)--------|-10----9----4--|-(4)----|
E|-10-----9----7--|-(7)--------|--8----7----2--|-(2)----|


   D     C#    Badd1Cmaj7 Aadd9
  6/4                         4/4          3/4
    q  S  q  S q  S  q  S Q    +W           +H     +Q
e|-------------0-----0----0--|-(0)--------|-(0)----(0)--|
B|-------------0-----0----0--|-(0)--------|-(0)----(0)--|
G|-11----10----8-----9----6--|-(6)--------|-(6)----(6)--|
D|-12----11----9----10----7--|-(7)--------|-(7)----(7)--|
A|-12----11----9----10----7--|-(7)--------|-(7)----(7)--|
E|-10-----9----7-----8----5--|-(5)--------|-(5)----(5)--|


   D     C#    Badd11            C     B    F#11
  7/8              4/4          7/8
    q  S  q  S Q    +W            q  S q  S Q
e|-------------0--|-(0)--------|------------0--|
B|-------------0--|-(0)--------|------------0--|
G|-11----10----8--|-(8)--------|--9----8----3--|
D|-12----11----9--|-(9)--------|-10----9----4--|
A|-12----11----9--|-(9)--------|-10----9----4--|
E|-10-----9----7--|-(7)--------|--8----7----2--|


                D     C#    Badd1Cmaj7
  4/4          5/4
   +W            q  S  q  S q  S  q  S
e|-(0)--------|-------------0-----0------|
B|-(0)--------|-------------0-----0------|
G|-(3)--------|-11----10----8-----9------|
D|-(4)--------|-12----11----9----10------|
A|-(4)--------|-12----11----9----10------|
E|-(2)--------|-10-----9----7-----8------|


   Q=122
   C#m     Em        G#
  5/8
   S S S e S S S e   S S S e E S e
e|-4-4-4-4-7-7-7-7-|-4-4-4-4-------|
B|-5-5-5-5-8-8-8-8-|-4-4-4-4-------|
G|-6-6-6-6-9-9-9-9-|-5-5-5-5-4s5-4-|
D|-6-6-6-6-9-9-9-9-|-6-6-6-6-5s6-5-|
A|-4-4-4-4-7-7-7-7-|-6-6-6-6-5s6-5-|
E|-----------------|-4-4-4-5-3s4-3-|


   C#m     Em
  5/8               6/8
   S S S e S S S e   W
e|-4-4-4-4-7-7-7-7-|------|
B|-5-5-5-5-8-8-8-8-|------|
G|-6-6-6-6-9-9-9-9-|------|
D|-6-6-6-6-9-9-9-9-|------|
A|-4-4-4-4-7-7-7-7-|------|
E|-----------------|------|


   C#m     Em        G#
  5/8
   S S S e S S S e   S S S e E S e
e|-4-4-4-4-7-7-7-7-|-4-4-4-4-------|
B|-5-5-5-5-8-8-8-8-|-4-4-4-4-------|
G|-6-6-6-6-9-9-9-9-|-5-5-5-5-4s5-4-|
D|-6-6-6-6-9-9-9-9-|-6-6-6-6-5s6-5-|
A|-4-7-4-4-7-7-7-7-|-6-6-6-6-5s6-5-|
E|-----------------|-4-4-4-5-3s4-3-|


                  Q=82
  C#m     Em
 5/8               4/4
                    Gtrs I, II, III
                       ~     ~       ~~        ~
  S S S e S S S e   Q  Q  Q  Q    Q  E. +S  Q  Q
e|-4-4-4-4-7-7-7-7-|-------------|-----------------||
B|-5-5-5-5-8-8-8-8-|-------------|-----------------||
G|-6-6-6-6-9-9-9-9-|-------------|-----------------||
D|-6-6-6-6-9-9-9-9-|-------------|-0--1--(1)S4--5--||
A|-4-4-4-4-7-7-7-7-|-------2--3--|-----------------||
E|-----------------|-3--4--------|-----------------||


     E=240
     Cm                        Bm/FF#
    11/8
     Gtrs I, II
     e E E  e  E E  e  E E  E  E
e||--3------3-------3-------3--2-|
B||o-4------4-------4-------4--3-|
G||--5---5--5----5--5----5--5--4-|
D||--5---5--5----5--5----5--5--4-|
A||o-----3-(3)---3-(3)---3-(3)---|
E||------------------------------|


                                   Ebm                       Dm/A
  12/8                            11/8
   e E E  e  E E  e  E E  e  E E   e E E  e  E E  e  E E  E  E  5x
e|-2------2-------2-------2------|-6------6-------6-------6--5--||
B|-2------2-------2-------2------|-7------7-------7-------7--6-o||
G|-3---3--3----3--3----3--3----3-|-8---8--8----8--8----8--8--7--||
D|-4---4--4----4--4----4--4----4-|-8---8--8----8--8----8--8--7--||
A|-----4--4----4--4----4--4----4-|-----6-(6)---6-(6)---6-(6)---o||
E|-----2-(2)---2-(2)---2-(2)---2-|------------------------------||


  Synth Enters
   Cm                            Bm/F#
  11/8
   Gtr V
    W                    +Q       +E
e|------------------------------------|
B|------------------------------------|
G|------------------------------------|
D|-10-------------------(10)-----(10)-|
A|------------------------------------|
E|------------------------------------|
 |
 | Gtrs I, II
 |  e E E  e  E E  e  E   E   E    E
e|--3------3-------3----------3----2--|
B|--4------4-------4----------4----3--|
G|--5---5--5----5--5------5---5----4--|
D|--5---5--5----5--5------5---5----4--|
A|------3-(3)---3-(3)-----3--(3)------|
E|------------------------------------|


   F#                                        Ebm                         Dm/A
  12/8                                      11/8
    W                    +Q       +E   +E    W                   +Q      +E
e|-----------------------------------------|----------------------------------|
B|-----------------------------------------|----------------------------------|
G|-11-------------------(11)-----(11)-(11)-|-8-------------------(8)-----(8)--|
D|-----------------------------------------|----------------------------------|
A|-----------------------------------------|----------------------------------|
E|-----------------------------------------|----------------------------------|
 |
 |  e E E  e  E E  e  E   E   e    E    E    e E E  e  E E  e  E  E   E   E
e|--2------2-------2----------2------------|-6------6-------6---------6---5---|
B|--2------2-------2----------2------------|-7------7-------7---------7---6---|
G|--3---3--3----3--3------3---3---------3--|-8---8--8----8--8-----8---8---7---|
D|--4---4--4----4--4------4---4---------4--|-8---8--8----8--8-----8---8---7---|
A|------4--4----4--4------4---4---------4--|-----6-(6)---6-(6)----6--(6)------|
E|------2-(2)---2-(2)-----2--(2)--------2--|----------------------------------|


   Cm                            Bm/F#
  11/8
    W                    +Q       +E
e|------------------------------------|
B|-13-------------------(13)-----(13)-|
G|------------------------------------|
D|------------------------------------|
A|------------------------------------|
E|------------------------------------|
 |
 |  e E E  e  E E  e  E   E   E    E
e|--3------3-------3----------3----2--|
B|--4------4-------4----------4----3--|
G|--5---5--5----5--5------5---5----4--|
D|--5---5--5----5--5------5---5----4--|
A|------3-(3)---3-(3)-----3--(3)------|
E|------------------------------------|


   F#                                    Ebm                         Dm/A
  12/8                                  11/8
    W                    +E   E   E  E   W                   +E   E  E
e|-------------------------------------|--------------------------------|
B|---------------------------11-----11-|--------------------------------|
G|-11-------------------(11)-----11----|-8-------------------(8)-11--8--|
D|-------------------------------------|--------------------------------|
A|-------------------------------------|--------------------------------|
E|-------------------------------------|--------------------------------|
 |
 |  e E E  e  E E  e  E   E   e   E  E   e E E  e  E E  e  E  E   E  E
e|--2------2-------2----------2--------|-6------6-------6---------6--5--|
B|--2------2-------2----------2--------|-7------7-------7---------7--6--|
G|--3---3--3----3--3------3---3------3-|-8---8--8----8--8-----8---8--7--|
D|--4---4--4----4--4------4---4------4-|-8---8--8----8--8-----8---8--7--|
A|------4--4----4--4------4---4------4-|-----6-(6)---6-(6)----6--(6)----|
E|------2-(2)---2-(2)-----2--(2)-----2-|--------------------------------|


   Cm                            Bm/F#F#
  11/8
    W                    +E   E   E
e|----------------------------------|
B|---------------------------13-----|
G|----------------------------------|
D|-10-------------------(10)-----10-|
A|----------------------------------|
E|----------------------------------|
 |
 |  e E E  e  E E  e  E   E   E   E
e|--3------3-------3----------3---2-|
B|--4------4-------4----------4---3-|
G|--5---5--5----5--5------5---5---4-|
D|--5---5--5----5--5------5---5---4-|
A|------3-(3)---3-(3)-----3--(3)----|
E|----------------------------------|


                                            Ebm                         Dm/A
  12/8                                     11/8
    H          +Q     +E   E  E  E   E  E   W                   +E   E  E
e|----------------------------------------|--------------------------------|
B|------------------------11----11-----11-|--------------------------------|
G|-11---------(11)---(11)----11-----11----|-8-------------------(8)-11--8--|
D|----------------------------------------|--------------------------------|
A|----------------------------------------|--------------------------------|
E|----------------------------------------|--------------------------------|
 |
 |  e E E  e    E  E   e   E  E  e   E  E   e E E  e  E E  e  E  E   E  E
e|--2------2-----------2---------2--------|-6------6-------6---------6--5--|
B|--2------2-----------2---------2--------|-7------7-------7---------7--6--|
G|--3---3--3-------3---3------3--3------3-|-8---8--8----8--8-----8---8--7--|
D|--4---4--4-------4---4------4--4------4-|-8---8--8----8--8-----8---8--7--|
A|------4--4-------4---4------4--4------4-|-----6-(6)---6-(6)----6--(6)----|
E|------2-(2)------2--(2)-----2-(2)-----2-|--------------------------------|


   Cm                            Bm/F#F#
  11/8
    W                    +E   E   E
e|----------------------------------|
B|---------------------------13-----|
G|----------------------------------|
D|-10-------------------(10)-----10-|
A|----------------------------------|
E|----------------------------------|
 |
 |  e E E  e  E E  e  E   E   E   E
e|--3------3-------3----------3---2-|
B|--4------4-------4----------4---3-|
G|--5---5--5----5--5------5---5---4-|
D|--5---5--5----5--5------5---5---4-|
A|------3-(3)---3-(3)-----3--(3)----|
E|----------------------------------|


                                         Ebm                         Dm/A
  12/8                                  11/8
    W                    +E   E   E  E   W                   +E  +E   E
e|-------------------------------------|---------------------------------|
B|---------------------------11-----11-|---------------------------------|
G|-11-------------------(11)-----11----|-8-------------------(8)-(8)-12--|
D|-------------------------------------|---------------------------------|
A|-------------------------------------|---------------------------------|
E|-------------------------------------|---------------------------------|
 |
 |  e E E  e  E E  e  E   E   e   E  E   e E E  e  E E  e  E  E   E   E
e|--2------2-------2----------2--------|-6------6-------6---------6---5--|
B|--2------2-------2----------2--------|-7------7-------7---------7---6--|
G|--3---3--3----3--3------3---3------3-|-8---8--8----8--8-----8---8---7--|
D|--4---4--4----4--4------4---4------4-|-8---8--8----8--8-----8---8---7--|
A|------4--4----4--4------4---4------4-|-----6-(6)---6-(6)----6--(6)-----|
E|------2-(2)---2-(2)-----2--(2)-----2-|---------------------------------|


   Cm                               Bm/F#F#
  11/8                                  12/8
                                                                >
    H          +Q     +E   E  E  E   E    W                    +H
e|-------------------------------------|-----------------------------------|
B|------------------------13----13-----|-----------------------------------|
G|-------------------------------------|-11-------------------(11)---------|
D|-10---------(10)---(10)----10-----10-|-----------------------------------|
A|-------------------------------------|-----------------------------------|
E|-------------------------------------|-----------------------------------|
 |
 |  e E E  e    E  E   e   E  E  E   E    e E E  e  E E  e  E   E   e  E E
e|--3------3-----------3---------3---2-|--2------2-------2----------2------|
B|--4------4-----------4---------4---3-|--2------2-------2----------2------|
G|--5---5--5-------5---5------5--5---4-|--3---3--3----3--3------3---3----3-|
D|--5---5--5-------5---5------5--5---4-|--4---4--4----4--4------4---4----4-|
A|------3-(3)------3--(3)-----3-(3)----|------4--4----4--4------4---4----4-|
E|-------------------------------------|------2-(2)---2-(2)-----2--(2)---2-|


    +W                     +H             W
e|-------------------------------------|---------------|
B|-------------------------------------|---------------|
G|-(11)-------------------(11)---------|---------------|
D|-------------------------------------|---------------|
A|-------------------------------------|---------------|
E|-------------------------------------|---------------|
 |
 |   e  E E  e  E E  e  E   E   e  E E    e  E Q  W
e|---2-------2-------2----------2------|--2------------|
B|---2-------2-------2----------2------|--2------------|
G|---3----3--3----3--3------3---3----3-|--3------------|
D|---4----4--4----4--4------4---4----4-|--4------------|
A|---4----4--4----4--4------4---4----4-|--4------------|
E|--(2)---2-(2)---2-(2)-----2--(2)---2-|-(2)-----------|


    Verse
     E=200
    4/4
     W          W              W
e||-----------|-----------||-|------||
B||o----------|----------o||-|------||
G||-----------|-----------||-|------||
D||-----------|-----------||-|------||
A||o----------|----------o||-|------||
E||-----------|-----------||-|------||


   Q=218
   A                       C                                             G5
   Gtrs I, II
   W          +W           E E +E  E +E  +E  E S S   +E  E +E  +E  E +E  E +E
e|----------|------------|-------------------------|---------------------------|
B|-5--------|-(5)--------|-5-5-(5)-5-(5)-(5)-5-5-5-|-(5)-5-(5)-(5)-5-(5)-------|
G|-6--------|-(6)--------|-5-5-(5)-5-(5)-(5)-5-5-5-|-(5)-5-(5)-(5)-5-(5)-------|
D|-7--------|-(7)--------|-5-5-(5)-5-(5)-(5)-5-5-5-|-(5)-5-(5)-(5)-5-(5)-5-(5)-|
A|-7--------|-(7)--------|-3-3-(3)-3-(3)-(3)-3-3-3-|-(3)-3-(3)-(3)-3-(3)-5-(5)-|
E|-5--------|-(5)--------|-------------------------|---------------------3-(3)-|


   A                       C                                             G5
   W          +W           E S S +E  E +E  +E  E E   +E  E +E  +E  E +E  E +E
e|----------|------------|-------------------------|---------------------------|
B|-5--------|-(5)--------|-5-5-5-(5)-5-(5)-(5)-5-5-|-(5)-5-(5)-(5)-5-(5)-------|
G|-6--------|-(6)--------|-5-5-5-(5)-5-(5)-(5)-5-5-|-(5)-5-(5)-(5)-5-(5)-------|
D|-7--------|-(7)--------|-5-5-5-(5)-5-(5)-(5)-5-5-|-(5)-5-(5)-(5)-5-(5)-5-(5)-|
A|-7--------|-(7)--------|-3-3-3-(3)-3-(3)-(3)-3-3-|-(3)-3-(3)-(3)-3-(3)-5-(5)-|
E|-5--------|-(5)--------|-------------------------|---------------------3-(3)-|


   Q=186
   D     C#    B                      C     B    F#11
  7/8              4/4               7/8             4/4
    q  S  q  S Q    +E  E E E Q  Q     q  S q  S Q    +E  E E E Q  Q
e|----------------|-----------0-----|---------------|-----------0------|
B|----------------|---------0----0--|---------------|---------0----0---|
G|-11----10----8--|-(8)---8---------|--9----8----3--|-(3)---3----------|
D|-12----11----9--|-(9)-9-----------|-10----9----4--|-(4)-4------------|
A|-12----11----9--|-(9)-------------|-10----9----4--|-(4)--------------|
E|-10-----9----7--|-(7)-------------|--8----7----2--|-(2)--------------|


   D     C#    B    C     Aadd9
  6/4                         4/4          3/4
    q  S  q  S q  S  q  S Q    +W           +H.
e|------------------------0--|-(0)--------|-(0)----|
B|------------------------0--|-(0)--------|-(0)----|
G|-11----10----8-----9----6--|-(6)--------|-(6)----|
D|-12----11----9----10----7--|-(7)--------|-(7)----|
A|-12----11----9----10----7--|-(7)--------|-(7)----|
E|-10-----9----7-----8----5--|-(5)--------|-(5)----|


   D     C#    B                      C     B    F#11
  7/8              4/4               7/8             4/4
    q  S  q  S Q    +E  E E E Q  Q     q  S q  S Q    +E  E E E Q  Q
e|----------------|-----------0-----|---------------|-----------0------|
B|----------------|---------0----0--|---------------|---------0----0---|
G|-11----10----8--|-(8)---8---------|--9----8----3--|-(3)---3----------|
D|-12----11----9--|-(9)-9-----------|-10----9----4--|-(4)-4------------|
A|-12----11----9--|-(9)-------------|-10----9----4--|-(4)--------------|
E|-10-----9----7--|-(7)-------------|--8----7----2--|-(2)--------------|


   D     C#    B    C     Aadd9                          G
  6/4                         4/4
    q  S  q  S q  S  q  S Q    +W           +H.      +E  E
e|------------------------0--|-(0)--------|-(0)------(0)-3-|
B|------------------------0--|-(0)--------|-(0)------(0)-3-|
G|-11----10----8-----9----6--|-(6)--------|-(6)------(6)-4-|
D|-12----11----9----10----7--|-(7)--------|-(7)------(7)-5-|
A|-12----11----9----10----7--|-(7)--------|-(7)------(7)-5-|
E|-10-----9----7-----8----5--|-(5)--------|-(5)------(5)-3-|


   G                                                 C
               >
   W          +W           +W           +H.      +E  S S
e|-3--------|-(3)--------|-(3)--------|-(3)------(3)-0-0-||
B|-3--------|-(3)--------|-(3)--------|-(3)------(3)-1-1-||
G|-4--------|-(4)--------|-(4)--------|-(4)------(4)-0-0-||
D|-5--------|-(5)--------|-(5)--------|-(5)------(5)-2-2-||
A|-5--------|-(5)--------|-(5)--------|-(5)------(5)-3-3-||
E|-3--------|-(3)--------|-(3)--------|-(3)------(3)-x-x-||


  Verse
   Q=152
   C          F          D          G
   W          W          W          W
e|-0--------|-1--------|-2--------|-3----|
B|-1--------|-1--------|-3--------|-3----|
G|-0--------|-2--------|-2--------|-0----|
D|-2--------|-3--------|-0--------|-0----|
A|-3--------|-3--------|----------|-2----|
E|-x--------|-1--------|----------|-3----|


   C                        F
   Gtrs I, II
   W                        W
e|-0----------------------|-1-----------------------|
B|-1----------------------|-1-----------------------|
G|-0----------------------|-2-----------------------|
D|-2----------------------|-3-----------------------|
A|-3----------------------|-3-----------------------|
E|-x----------------------|-1-----------------------|
 |
 | Gtrs I, II, III
 | H        +Q   +E  +E     H         +Q   +E  +E
e|------------------------|-------------------------|
B|-5--------(5)--(5)-(5)--|-6---------(6)--(6)-(6)--|
G|-7pb9=====(7)--(7)-(7)r-|-8pb10=====(8)--(8)-(8)r-|
D|------------------------|-------------------------|
A|------------------------|-------------------------|
E|------------------------|-------------------------|


   D                        G
   W                         W
e|-2----------------------|--3------------------------------------------|
B|-3----------------------|--3------------------------------------------|
G|-2----------------------|--0------------------------------------------|
D|-0----------------------|--0------------------------------------------|
A|------------------------|--2------------------------------------------|
E|------------------------|--3------------------------------------------|
 |
 | H        +Q   +E  +E      E       +E    +E      +E      +E     E E E
e|------------------------|---------------------------------------------|
B|-3--------(3)--(3)-(3)--|-10------(10)--(10)----(10)----(10)----------|
G|-5pb7=====(5)--(5)-(5)r-|-12pb14==(12)r-(12)b14r(12)b14r(12)b14r======|
D|------------------------|---------------------------------------------|
A|------------------------|-----------------------------------------0-2-|
E|------------------------|---------------------------------------3-----|


   C               F               D               G
   Q.   Q  E E E   Q.   Q  E E E   Q.   Q  E E E   Q.   Q  E E E
e|-0----0--------|-1----1--------|-2----2--------|-3----3--------|
B|-1----1--------|-1----1--------|-3----3--------|-3----3--------|
G|-0----0--------|-2----2--------|-2----2--------|-0----0--------|
D|-2----2--------|-3----3--3-2---|-0----0--0-----|-0----0--------|
A|-3----3--3-2-0-|-3----3------3-|-----------2---|-2----2----0-2-|
E|-x----x--------|-1----1--------|-------------3-|-3----3--3-----|
 |
 | Q.   Q  E E E   Q.   Q  E E E   Q.   Q  E E E   Q.   Q  E E E
e|-0----0--------|-1----1--------|-2----2--------|-3----3--------|
B|-1----1--------|-1----1--------|-3----3--------|-3----3--------|
G|-0----0--------|-2----2--------|-2----2--------|-0----0--------|
D|-2----2--------|-3----3--3-2---|-0----0--0-----|-0----0--------|
A|-3----3--3-2-0-|-3----3------3-|-----------2---|-2----2----0-2-|
E|-x----x--------|-1----1--------|-------------3-|-3----3--3-----|


   C               F               D               G
   Q.   Q  E E E   Q.   Q  E E E   Q.   Q  E E E   Q.   Q      E E  E
e|-0----0--------|-1----1--------|-2----2--------|-3----3---------------|
B|-1----1--------|-1----1--------|-3----3--------|-3----3---------------|
G|-0----0--------|-2----2--------|-2----2--------|-0----0---------------|
D|-2----2--------|-3----3--3-2---|-0----0--0-----|-0----0---------------|
A|-3----3--3-2-0-|-3----3------3-|-----------2---|-2----2--------0--2---|
E|-x----x--------|-1----1--------|-------------3-|-3----3------3--------|
 |
 | Q.   Q  E E E   Q.   Q  E E E   Q.   Q  E E E   Q.   Q      Q   +E
e|-0----0--------|-1----1--------|-2----2--------|----------------------|
B|-1----1--------|-1----1--------|-3----3--------|------3------3---(3)--|
G|-0----0--------|-2----2--------|-2----2--------|------5pb7===5---(5)r-|
D|-2----2--------|-3----3--3-2---|-0----0--0-----|----------------------|
A|-3----3--3-2-0-|-3----3------3-|-----------2---|----------------------|
E|-x----x--------|-1----1--------|-------------3-|----------------------|


   C               F               D               G
   Q.   Q  E E E   Q.   Q  E E E   Q.   Q  E E E   Q.    Q        Q    +E
e|-0----0--------|-1----1--------|-2----2--------|--------------------------|
B|-1----1--------|-1----1--------|-3----3--------|------13-------13---(13)--|
G|-0----0--------|-2----2--------|-2----2--------|------15pb17===15---(15)r-|
D|-2----2--------|-3----3--3-2---|-0----0--0-----|--------------------------|
A|-3----3--3-2-0-|-3----3------3-|-----------2---|--------------------------|
E|-x----x--------|-1----1--------|-------------3-|--------------------------|
 |
 | Q.   Q  E E E   Q.   Q  E E E   Q.   Q  E E E   Q.    Q        E E   E
e|-0----0--------|-1----1--------|-2----2--------|-3-----3------------------|
B|-1----1--------|-1----1--------|-3----3--------|-3-----3------------------|
G|-0----0--------|-2----2--------|-2----2--------|-0-----0------------------|
D|-2----2--------|-3----3--3-2---|-0----0--0-----|-0-----0------------------|
A|-3----3--3-2-0-|-3----3------3-|-----------2---|-2-----2----------0---2---|
E|-x----x--------|-1----1--------|-------------3-|-3-----3--------3---------|


   C               F               D               G
                                                                          PM
   Q.   Q  E E E   Q.   Q  E E E   Q.   Q  E E E   Q.    Q        E +E    E
e|-0----0--------|-1----1--------|-2----2--------|-3-----3--------------------|
B|-1----1--------|-1----1--------|-3----3--------|-3-----3--------------------|
G|-0----0--------|-2----2--------|-2----2--------|-0-----0--------------------|
D|-2----2--------|-3----3--3-2---|-0----0--0-----|-0-----0--------0-(0)---0---|
A|-3----3--3-2-0-|-3----3------3-|-----------2---|-2-----2--------2-(2)---2---|
E|-x----x--------|-1----1--------|-------------3-|-3-----3--------3-(3)---3---|
 |
 | Q.   Q  E E E   Q.   Q  E E E   Q.   Q  E E E   Q.    Q        Q      +E
e|-0----0--------|-1----1--------|-2----2--------|----------------------------|
B|-1----1--------|-1----1--------|-3----3--------|-------8--------8------(8)--|
G|-0----0--------|-2----2--------|-2----2--------|------10pb12===10-----(10)r-|
D|-2----2--------|-3----3--3-2---|-0----0--0-----|----------------------------|
A|-3----3--3-2-0-|-3----3------3-|-----------2---|----------------------------|
E|-x----x--------|-1----1--------|-------------3-|----------------------------|


    H.=H                          Q=74
   G
   Gtrs I, II
   PM------------|
   E E E E E E E E   E E E E E E E E
e|-----------------|-----------------|
B|-----------------|-----------3-3-3-|
G|-----------------|-------4-4-4-4-4-|
D|-----------------|-5-5-5-5-5-5-5-5-|
A|-------------5-5-|-5-5-5-5-5-5-5-5-|
E|-3-3-3-3-3-3-3-3-|-3-3-3-3-3-3-3-3-|


   Q=114
   Cm         G#         F
   W          W          W
e|-3--------|----------|-1----|
B|-4--------|-4--------|-1----|
G|-5--------|-5--------|-2----|
D|-5--------|-6--------|-3----|
A|-3--------|-6--------|-3----|
E|----------|-4--------|-1----|


   Q=106
   Gtrs I, II, III
      ~     ~       ~~        ~
   Q  Q  Q  Q    Q  E. +S  Q  Q
e|-------------|-----------------||
B|-------------|-----------------||
G|-------------|-----------------||
D|-------------|-0--1--(1)S4--5--||
A|-------2--3--|-----------------||
E|-3--4--------|-----------------||


 Guitar Solo
  Cm                        G#
  Gtr III
    W                        W
    |                        |
    /                        /

   Gtrs I, II
     ~~~~~~~~~~~~~~~~~~~                          ~~~~~~~
     H.            +E    E    S.  S.  E  E  +T  T Q  +E  +E
e|----------------------13-|-11--10---------------------------|
B|-[13]pb14=======(13)r----|---------13-11-(11)---9--(9)-(9)\-|
G|-------------------------|----------------------------------|
D|-------------------------|----------------------------------|
A|-------------------------|----------------------------------|
E|-------------------------|----------------------------------|


  F
  W
  |
  /

                      ~~~~
   S  Q       +Q      Q    +E.
e|-------------------------------|
B|-------------------------------|
G|---10b12===(10)r--[10]--(10)\--|
D|-------------------------------|
A|-------------------------------|
E|-------------------------------|


  G                              Em(type 2)
  H                               H
  |                               |
  /                               /

   S  S  S  S  S  S       S     S  S       S     E      +E   +E
e|---------------------------------------------------------------|
B|-----------------------------13-13b13.5-13b14-13b15==(13)-(13)r|
G|---12-13-15-15-15b16.5-15b17-----------------------------------|
D|---------------------------------------------------------------|
A|---------------------------------------------------------------|
E|---------------------------------------------------------------|


  Cm
    W
    |
    /

     \0.5/   \0.5/   \0.5/   \0.5/   \0.5/   \0.5/
    +S      +S      +S      +S      +S      +S      +E   H
e|------------------------------------------------------------|
B|-(13)----(13)----(13)----(13)----(13)----(13)----(13)\------|
G|------------------------------------------------------------|
D|------------------------------------------------------------|
A|------------------------------------------------------------|
E|------------------------------------------------------------|


  G#                                         F
    W                                         W
    |                                         |
    /                                         /
                                                    ~~~~~~~
                                              |--3--|
     E        +Q     E   Q   +S   +S  T  S.    E  E  E  +E   +Q    E Q
e|-[15]pb16==(15)r=[15]-13--(13)-(13)---10--|-11-10---------------------|
B|------------------------------------------|-------13-(13)-(13)\-------|
G|------------------------------------------|---------------------------|
D|------------------------------------------|---------------------------|
A|------------------------------------------|---------------------------|
E|------------------------------------------|---------------------------|


  G                    Em(type 2)        Cm
   H                   H                  W
   |                   |                  |
   /                   /                  /
                                              ~~
                                                          |--3--|
   S  S. T  E     E  E   T  Q     T  E    E.  E  +E.  Q   S  S  Q
e|--------------------------------------|--------------------------|
B|----------15b18-----------------------|--------------------------|
G|-12-12----------12--------15b17r===12-|--------------------------|
D|-------------------13-----------------|-15--13-(13)\----13h15p13-|
A|--------------------------------------|--------------------------|
E|--------------------------------------|--------------------------|


  G#                              F
   W                                W
   |                                |
   /                                /

    S  S  +E   a  E. H     S        +S   +S   E       S E. H
e|-------------------------------|------------------------------||
B|-------------------------------|------------------------------||
G|-------------------0----12b14==|=(12)-(12)r-------------------||
D|-13-12-(12)-12s10--------------|------------xpb10.5-x---------||
A|-------------------------------|------------------------------||
E|-------------------------------|------------------------------||


   Gtrs I, II, III
      ~     ~       ~~        ~
   Q  Q  Q  Q    Q  E. +S  Q  Q
e|-------------|-----------------|
B|-------------|-----------------|
G|-------------|-----------------|
D|-------------|-0--1--(1)S4--5--|
A|-------2--3--|-----------------|
E|-3--4--------|-----------------|


  G             Em(type 2)
  Gtr III
   H             H
   |             |
   /             /

   Gtrs I, II
    ~~~~~~~~      ~~~~~~~~
    Q   +E  +E    Q   +E  E
e|---------------15--(15)---|
B|--------------------------|
G|-12--(12)-(x)/------------|
D|--------------------------|
A|--------------------------|
E|--------------------------|
 |
 | Gtr IV
 |  W
e|--------------------------|
B|--------------------------|
G|--------------------------|
D|--------------------------|
A|--------------------------|
E|--------------------------|


  Q=156
  Cm
   W                                                                             W
   |
   /

                  \0.75/   \0.75/   \0.75/   \0.75/   \1/   \1/   \1.25/|
    Q            +S       +S       +S       +S       +S    +S    +S     |
e|-17pb18.5=====(17)-----(17)-----(17)-----(17)-----(17)--(17)--(17)----|
B|----------------------------------------------------------------------|
G|----------------------------------------------------------------------|
D|----------------------------------------------------------------------|
A|----------------------------------------------------------------------|
E|----------------------------------------------------------------------|

     \1.25/   \1/   \1/   \0.75/
    +S       +S    +S    +E          Q      Q    H
e|-(17)-----(17)--(17)--(17)r====|=(17)\-------------------||
B|-------------------------------|---x\--------------------||
G|-------------------------------|-------------------------||
D|-------------------------------|-------------------------||
A|-------------------------------|-------------------------||
E|-------------------------------|-------------------------||
 |
 |  E         q                     q                             q  |
e|-------------------------------------------------------------------|
B|-------------------------------------------------------------------|
G|-------------------------------------------------------------------|
D|-----------10--------------------10----------------------------10--|
A|-------------------------------------------------------------------|
E|--8-------------8-----------------------------------8--------------|
   Q             Q                                   Q              |

                             E          E    q    Q    q    E
e|----------------------------------|-------------------------||
B|----------------------------------|-------------------------||
G|----------------------------------|-------------------------||
D|--------------------------10------|-------10---10---10---10-||
A|----------------------------------|-------------------------||
E|---------------8------------------|---8------8----8----8----||
               Q                      Q      Q    Q    Q


    Interlude
     Gtr IV
     E  q    q    q    E  6x     E  q    q   q   E   E q   q    q    E
e||-----------------------||-||--------------------|---------------------||
B||o---------------------o||-||o-------------------|--------------------o||
G||-----------------------||-||--------------------|---------------------||
D||----10---10---10---10--||-||----10---10---6---6-|---9---9---10---10---||
A||o---------------------o||-||o-------------------|--------------------o||
E||--8----8----8----8-----||-||--8----8----4---4---|-7---7---8----8------||
    Q    Q    Q    Q            Q    Q    Q   Q     Q   Q   Q    Q


     E  q    q    q    E  6x     E  q    q   q   E   E q   q    q    E
e||-----------------------||-||--------------------|---------------------||
B||o---------------------o||-||o-------------------|--------------------o||
G||-----------------------||-||--------------------|---------------------||
D||----10---10---10---10--||-||----10---10---6---6-|---9---9---10---10---||
A||o---------------------o||-||o-------------------|--------------------o||
E||--8----8----8----8-----||-||--8----8----4---4---|-7---7---8----8------||
    Q    Q    Q    Q            Q    Q    Q   Q     Q   Q   Q    Q


     E  q    q    q    E  3x     E  q    q   q   E   E q   q    q    E
e||-----------------------||-||--------------------|---------------------||
B||o---------------------o||-||o-------------------|--------------------o||
G||-----------------------||-||--------------------|---------------------||
D||----10---10---10---10--||-||----10---10---6---6-|---9---9---10---10---||
A||o---------------------o||-||o-------------------|--------------------o||
E||--8----8----8----8-----||-||--8----8----4---4---|-7---7---8----8------||
    Q    Q    Q    Q            Q    Q    Q   Q     Q   Q   Q    Q


  4/4
   E  q    q    q    E     E  q    q    q    E   E  q    q    q    E   3x
e|---------------------||----------------------|-----------------------||
B|---------------------||o---------------------|----------------------o||
G|---------------------||----------------------|-----------------------||
D|---10---10---10---10-||----10---10---10---10-|---10---10---10---10---||
A|---------------------||o---------------------|----------------------o||
E|-8----8----8----8----||--8----8----8----8----|-8----8----8----8------||
  Q    Q    Q    Q        Q    Q    Q    Q      Q    Q    Q    Q


  4/4
   E q   q   q   E   E q   q   q   E   E q   q   q   E
e|-----------------|-----------------|------------------||
B|-----------------|-----------------|------------------||
G|-----------------|-----------------|------------------||
D|---9---9---9---9-|---8---8---7---7-|---6---5---4---3--||
A|-----------------|-----------------|------------------||
E|-7---7---7---7---|-6---6---5---5---|-4---3---2---1----||
  Q   Q   Q   Q     Q   Q   Q   Q     Q   Q   Q   Q


   Breakdown
    Q=156
    E5                          F#5
   11/8
    Gtrs I, II
    Q  Q  E. E. E E E E  8x     Q  Q  E. E. E E E E  4x
e||-----------------------||-||-----------------------||
B||o---------------------o||-||o---------------------o||
G||-----------------------||-||-----------------------||
D||-----2------------2----||-||-----4------------4----||
A||o---------------2---2-o||-||o---------------4---4-o||
E||--0-----0--0--0--------||-||--2-----2--2--2--------||


   Pre-Verse
    Q=132
    C#m  Em     G#   G
   6/8
    Gtrs I, II
    Q.   Q.     Q.   Q.
    |    |      |    |
    /    /      /    /

     Gtr IV
     W           W
e||------------|-----------|
B||o-----------|-----------|
G||------------|-----------|
D||------------|-----------|
A||o-----------|-----------|
E||------------|-----------|


             1.              2.
  C#m  Em     Cm              C5 Cm      C5 Cm
  Q.   Q.     E Q  E Q        S. S +S. E S. S +S. S S
  |    |      | |  | |        |  |  |  | |  |  |  |
  /    /      / /  / /        /  /  /  / /  /  /  /

   W           W               W
e|-----------|------------||-|-------------------------|
B|-----------|-----------o||-|-------------------------|
G|-----------|------------||-|-------------------------|
D|-----------|------------||-|-------------------------|
A|-----------|-----------o||-|-------------------------|
E|-----------|------------||-|-------------------------|


    C#m  Em     G#   G
   6/8
    Q.   Q.     Q.   Q.
    |    |      |    |
    /    /      /    /

     W           W
e||------------|-----------|
B||o-----------|-----------|
G||------------|-----------|
D||------------|-----------|
A||o-----------|-----------|
E||------------|-----------|


             1.               2.
  C#m  Em     Cm               Cm
  Q.   Q.     Q.   E E E       Q  E Q  E
  |    |      |    | | |       |  | |  |
  /    /      /    / / /       /  / /  /

   W           W                W
e|-----------|-------------||-|-----------|
B|-----------|------------o||-|-----------|
G|-----------|-------------||-|-----------|
D|-----------|-------------||-|-----------|
A|-----------|------------o||-|-----------|
E|-----------|-------------||-|-----------|


  Verse 3
   C#m  Em     G#   G      C#m  Em     Cm
  6/8
   Q.   Q.     Q.   Q.     Q.   Q.     E E E E E +E
   |    |      |    |      |    |      | | | | |  |
   /    /      /    /      /    /      / / / / /  /

   W           W           W           W
e|-----------|-----------|-----------|--------------|
B|-----------|-----------|-----------|--------------|
G|-----------|-----------|-----------|--------------|
D|-----------|-----------|-----------|--------------|
A|-----------|-----------|-----------|--------------|
E|-----------|-----------|-----------|--------------|


    C#m           Em              G#            G
   6/8
    S S S S +S +S S S S S +S +S   S S S S +S +S S S S S +S +S
    | | | |  |  | | | | |  |  |   | | | |  |  | | | | |  |  |
    / / / /  /  / / / / /  /  /   / / / /  /  / / / / /  /  /

     W                             W
e||------------------------------|------------------------------|
B||o-----------------------------|------------------------------|
G||------------------------------|------------------------------|
D||------------------------------|------------------------------|
A||o-----------------------------|------------------------------|
E||------------------------------|------------------------------|


                               1.                2.
  C#m           Em              Cm                C5
  S S S S +S +S S S S S +S +S   E E E E E E       S S S S +S S S S S S S +S
  | | | |  |  | | | | |  |  |   | | | | | |       | | | |  | | | | | | |  |
  / / / /  /  / / / / /  /  /   / / / / / /       / / / /  / / / / / / /  /

   W                             W                 W
e|-----------------------------|--------------||-|---------------------------|
B|-----------------------------|-------------o||-|---------------------------|
G|-----------------------------|--------------||-|---------------------------|
D|-----------------------------|--------------||-|---------------------------|
A|-----------------------------|-------------o||-|---------------------------|
E|-----------------------------|--------------||-|---------------------------|


    C#m           Em              G#            G
   6/8
    S S S S +S +S S S S S +S +S   S S S S +S +S S S S S +S +S
    | | | |  |  | | | | |  |  |   | | | |  |  | | | | |  |  |
    / / / /  /  / / / / /  /  /   / / / /  /  / / / / /  /  /

     W                             W
e||------------------------------|------------------------------|
B||o-----------------------------|------------------------------|
G||------------------------------|------------------------------|
D||------------------------------|------------------------------|
A||o-----------------------------|------------------------------|
E||------------------------------|------------------------------|


                               1.                2.
  C#m           Em              Cm                Cm
  S S S S +S +S S S S S +S +S   E E E E E E       S S S S S S S S S S S S
  | | | |  |  | | | | |  |  |   | | | | | |       | | | | | | | | | | | |
  / / / /  /  / / / / /  /  /   / / / / / /       / / / / / / / / / / / /

   W                             W                 W
e|-----------------------------|--------------||-|-------------------------|
B|-----------------------------|-------------o||-|-------------------------|
G|-----------------------------|--------------||-|-------------------------|
D|-----------------------------|--------------||-|-------------------------|
A|-----------------------------|-------------o||-|-------------------------|
E|-----------------------------|--------------||-|-------------------------|


  C#m           Em              G#            G
 6/8
  S S S S +S +S S S S S +S +S   S S S S +S +S S S S S +S +S
  | | | |  |  | | | | |  |  |   | | | |  |  | | | | |  |  |
  / / / /  /  / / / / /  /  /   / / / /  /  / / / / /  /  /

   W                             W
e|-----------------------------|-----------------------------|
B|-----------------------------|-----------------------------|
G|-----------------------------|-----------------------------|
D|-----------------------------|-----------------------------|
A|-----------------------------|-----------------------------|
E|-----------------------------|-----------------------------|


  C#m           Em              Cm
  S S S S +S +S S S S S +S +S   S S S S S S S S S S S S
  | | | |  |  | | | | |  |  |   | | | | | | | | | | | |
  / / / /  /  / / / / /  /  /   / / / / / / / / / / / /

   W                             W
e|-----------------------------|--------------------------|
B|-----------------------------|--------------------------|
G|-----------------------------|--------------------------|
D|-----------------------------|--------------------------|
A|-----------------------------|--------------------------|
E|-----------------------------|--------------------------|


    Outro
     Cm
     Gtrs I, II
     S S S S S S S S S S S S   S S S S S S S S S S S S
e||--3-3-3-3-3-3-3-3-3-3-3-3-|-3-3-3-3-3-3-3-3-3-3-3-3--||
B||o-4-4-4-4-4-4-4-4-4-4-4-4-|-4-4-4-4-4-4-4-4-4-4-4-4-o||
G||--5-5-5-5-5-5-5-5-5-5-5-5-|-5-5-5-5-5-5-5-5-5-5-5-5--||
D||--5-5-5-5-5-5-5-5-5-5-5-5-|-5-5-5-5-5-5-5-5-5-5-5-5--||
A||o-3-3-3-3-3-3-3-3-3-3-3-3-|-3-3-3-3-3-3-3-3-3-3-3-3-o||
E||--x-x-x-x-x-x-x-x-x-x-x-x-|-x-x-x-x-x-x-x-x-x-x-x-x--||


   Cm
                         >
   H.        +H.        +H.        +H.        +H.        +H.
e|-3-------|-(3)------|-(3)------|-(3)------|-(3)------|-(3)----|
B|-4-------|-(4)------|-(4)------|-(4)------|-(4)------|-(4)----|
G|-5-------|-(5)------|-(5)------|-(5)------|-(5)------|-(5)----|
D|-5-------|-(5)------|-(5)------|-(5)------|-(5)------|-(5)----|
A|-3-------|-(3)------|-(3)------|-(3)------|-(3)------|-(3)----|
E|-x-------|-(x)------|-(x)------|-(x)------|-(x)------|-(x)----|


     Q=46
     Cm         Ebm        Emadd9     Em
     Gtr IV
      H.         H.         H.         H.     3x
e||--^3-------|-^6-------|-^0-------|-^0------||
B||o-^4-------|-^7-------|-^0-------|-^0-----o||
G||--^5-------|-^8-------|-^0-------|-^0------||
D||--^5-------|-^8-------|-^4-------|-^2------||
A||o-^3-------|-^6-------|-^2-------|-^2-----o||
E||-----------|----------|-^0-------|-^0------||


Duration Legend
---------------
W - whole; H - half; Q - quarter; E - 8th; S - 16th; T - 32nd; X - 64th; a - acciaccatura
+ - note tied to previous; . - note dotted; .. - note double dotted
Uncapitalized letters represent notes that are staccato (1/2 duration)
Irregular groupings are notated above the duration line
Duration letters will always appear directly above the note/fret number it represents the
duration for.  Duration letters with no fret number below them represent rests.  Multi-
bar rests are notated in the form Wxn, where n is the number of bars to rest for.  Low
melody durations appear below the staff

Tablature Legend
----------------
 h   - hammer-on
 p   - pull-off
 b   - bend
 pb  - pre-bend
 r   - bend release (if no number after the r, then release immediately)
 /\  - slide into or out of (from/to "nowhere")
 s   - legato slide
 S   - shift slide
  - natural harmonic
[n]  - artificial harmonic
n(n) - tapped harmonic
 ~   - vibrato
 tr  - trill
 T   - tap
 TP  - trem. picking
 PM  - palm muting
\n/  - tremolo bar dip; n = amount to dip
 \n  - tremolo bar down
 n/  - tremolo bar up
/n\  - tremolo bar inverted dip
 =   - hold bend; also acts as connecting device for hammers/pulls
 <>  - volume swell (louder/softer)
 x   - on rhythm slash represents muted slash
 o   - on rhythm slash represents single note slash

Misc Legend
-----------
 |  - bar
||  - double bar
||o - repeat start
o|| - repeat end
*|  - double bar (ending)
 :  - bar (freetime)
 $  - Segno
 &  - Coda
Tempo markers -  = BPM(8/16=s8/s16), where s8 = swing 8ths, s16 = swing 16ths
Suggest correction
comments
print report bad tab
1 comment total.
0 reply
jparraloyola 10 Dec 27, 2014 05:57 AM

Such a great tab man, thank you so much!!!

guest
You may want to rate the tab now too:
select rating
Wanna post a correction for this tab? Suggest correction