Oops, an error
Loading. Please wait.

Cygnus X-1 Book Ii Hemispheres Iii Dionysus - Bringer Of Love Tab

version 1
version 1

Whole song

Interactive

by Rush
524 views 1 this week
no commentswrite comment
1 2 3 4 5
2 more votes to show rating
add to favorites
launch autoscroll
font size
0
reset
how to read this tab
guitar tuner
×
Best way to learn
"Cygnus X-1 Book Ii Hemispheres Iii Dionysus - Bringer Of Love"
Autoscroll
slow
fast
+/-
esc
set tempo
stop
Rush - III Dionysus - Bringer of Love

 [Riff 1]
e|---------------------------------------|-----------------|
B|--0--0--0----0--0--0----0--0--0----0~--|--0--0--0--0--0~-|
G|--0--0--0----4--4--4----0--0--0----4~--|--0--0--0--0--4~-|
D|--4--4--4----2--2--2----4--4--4----2~--|--4--4--4--4--2~-|
A|--2--2--2----4--4--4----2--2--2----4~--|--2--2--2--2--4~-|
E|--3--3--3--2-2--2--2--3-3--3--3--2-2~--|--3--3--3--3--2~-|

   [Riff 2a]
e|-----------------------------------------------|
B|-------------------------------------------2---|
G|--------0-----------2-----------0------------0-|
D|------4---4-------2---2-------4---4------2-----|
A|----2-----------4-----------2----------4-------|
E|--3-----------2-----------3----------2---------|

   [Riff 2b]
e|------------------------------------------------|
B|--------------------------------------------2~--|
G|--------0-----------2-----------0---------------|
D|------4---4-------2---2-------4---4------2------|
A|----2-----------4-----------2----------4--------|
E|--3-----------2-----------3----------2----------|

 [Riff 3]
    Bbmaj7     A7sus4
e|---------------------------------------|----------------|
B|---------------------------------------|----------------|
G|--7--7--7----7--7--7----7--7--7----7~--|--7--7--7--7--7~|
D|--7--7--7----5--5--5----7--7--7----5~--|--7--7--7--7--5~|
A|--5--5--5----7--7--7----5--5--5----7~--|--5--5--5--5--7~|
E|--6--6--6--5-5--5--5--6-6--6--6--5-5~--|--6--6--6--6--5~|

   [Riff 4a]
e|---------------------------------------------|
B|-----------------------------------------5~--|
G|--------0~---------5~---------0~-------------|
D|------7---7~-----5---5~-----7---7~-----5---5~|
A|----5----------7----------5----------7-------|
E|--6----------5----------6----------5---------|

   [Riff 4b]                           Am7
e|--------------------------------------------------|
B|-------------------------------------5~-----------|
G|--------0~----------5~---------0~----5~-----------|
D|------7---7~------5---5~-----7---7~--5~-----------|
A|----5-----------7----------5---------7~-----------|
E|--6-----------5----------6-----------5~-----------|

   [Fill 1]       [Fill 2]
e|--------------|---------|
B|--------------|---------|
G|--------------|---------|
D|---7~--6~-----|---------|
A|----------7~--|---------|
E|--------------|-4-5-7.--|

   [Riff 5a]
e|-----------------------------------------------|
B|----9--9--9------9--9--9------8--8--8--7-8-7---|
G|----9--9--9------9--9--9------7--7--7--7-7-7---|
D|----9--9--9------9--9--9------7--7--7--7-7-7---|
A|---------------------------5-----------------5-|
E|-0------------0--------------------------------|

   [Riff 5b]
e|------------------------------------------------|
B|----9--9--9-----10-10-10-9-----8--8--8--7-8-7---|
G|----9--9--9-----9--9--9--9-----7--7--7--7-7-7---|
D|----9--9--9-----11-11-11-9-----7--7--7--7-7-7---|
A|----------------------------5-----------------5-|
E|-0------------0---------------------------------|

   [Riff 6]
e|---------------------------------------------------------|
B|--2-2--2---2--2------------------------------------------|
G|--2-2--2---2--2----2-2-2-2--4-4-4-4----------------------|
D|--2-2--2---2--2----2-2-2-2--4-4-4-4---2-2-2-2-2-2--------|
A|--0-0--0---0--0----0-0-0-0--2-2-2-2---4-2-4-5-4-2--------|
E|---------------------------------------------------0-----|


Progression:

First half of [Riff 1] x1

[Riff 1] x1 w/ lyrics:

"I bring Love to give you solace, in the darkness of the night,
in the heart's eternal light.

[Riff 2a] x1

[Riff 2b] x1 w/ lyrics:

You need only trust your feelings. Only love can steer you right."

[Riff 3] x1 w/ lyrics:

"I bring Laughter, I bring Music, I bring joy and I bring tears -
I will soothe your primal fears.

[Riff 4a] x1

[Riff 4b] x1 w/ lyrics:
                                                 Am7
Throw off those chains of Reason and your prison disappears."

      F#7/11                        A9
e|----0~---------0~------0~-----|---0~-----0~--0~---|-0~--0-0-0--0-0-0-0-0-|
B|----0~---------0~------0~-----|---0~-----0~--0~---|-0~--0-0-0--0-0-0-0-0-|
G|o---3~---------3~------3~----o|---6~-----6~--6~---|-6~--6-6-6--3-3-3-3-3-|
D|o---4~---------4~------4~----o|---7~-----7~--7~---|-7~--7-7-7--4-4-4-4-4-|
A|----4~---------4~------4~-----|---7~-----7~--7~---|-7~--7-7-7--4-4-4-4-4-|
E|----2~---------2~------2~-----|---5~-----5~--5~---|-5~--5-5-5--2-2-2-2-2-|

[Fill 1] x1

With [Riff 5a] x1:

  The cities were abandoned, and the forest echoed song. [Fill 2]

With [Riff 6] x1:

  They danced and lived as brothers; they knew Love could not be wrong.

With [Riff 5a] x1:
                                                                [Fill 2]
  Food and wine they had aplenty, and they slept beneath the stars.

With [Riff 6] x1:

  The people were contented, and the Gods watched from afar.

With [Riff 5b] x1:

  But the winter fell upon them and it caught them unprepared, [Fill 2]

With [Riff 6] x1:

  Bringing wolves and cold starvation, and the hearts of men despaired.

e|-----------------|-------------------------|
B|-----------------|-------------------------|
G|--4-4-4----------|-------------------------|
D|--4-4-4----------|-------------------------|
A|--2-2-2--4-4-4-4-|--6-4-6-7-6-4------------|
E|-----------------|-------------------------|

Segue:

e|--0~---0~---0--0~----|---0~--0~--0--0~--|--------------------------|
B|--0~---0~---0--0~----|---0~--0~--0--0~--|--------1~---1~---1~------|
G|--6~---6~---6--6~----|---0~--0~--0--0~--|---2~---0~---2~---0~------|
D|--7~---7~---7--7~----|---2~--2~--2--2~--|---3~---2~---2~---2~------|
A|--7~---7~---7--7~----|---3~--3~--3--3~--|---3~---3~---0~---3~------|
E|--5~---5~---5--5~----|------------------|---1~---3~---1~---3~------|
Suggest correction
Give kudos to tab author, rate the tab!
1 2 3 4 5
comments
print report bad tab
guest
You may want to rate the tab now too:
select rating
Wanna post a correction for this tab? Suggest correction